ISO-10303-21;
HEADER;
FILE_DESCRIPTION (( 'STEP AP203' ),
    '1' );
FILE_NAME ('64dd.STEP',
    '2023-02-12T11:40:22',
    ( '' ),
    ( '' ),
    'SwSTEP 2.0',
    'SolidWorks 2019',
    '' );
FILE_SCHEMA (( 'CONFIG_CONTROL_DESIGN' ));
ENDSEC;

DATA;
#1 = APPROVAL_DATE_TIME ( #153, #72 ) ;
#2 = EDGE_CURVE ( 'NONE', #255, #16, #243, .T. ) ;
#3 = PERSON_AND_ORGANIZATION ( #135, #112 ) ;
#4 = FACE_OUTER_BOUND ( 'NONE', #99, .T. ) ;
#5 = CC_DESIGN_APPROVAL ( #125, ( #200 ) ) ;
#6 = DIRECTION ( 'NONE',  ( -0.000000000000000000, -0.000000000000000000, -1.000000000000000000 ) ) ;
#7 = CARTESIAN_POINT ( 'NONE',  ( 6.000000000000000888, 7.347880794884120722E-16, 5.000000000000000000 ) ) ;
#8 = APPROVAL_PERSON_ORGANIZATION ( #227, #125, #55 ) ;
#9 =( NAMED_UNIT ( * ) PLANE_ANGLE_UNIT ( ) SI_UNIT ( $, .RADIAN. ) );
#10 = CC_DESIGN_DATE_AND_TIME_ASSIGNMENT ( #103, #249, ( #200 ) ) ;
#11 = DIRECTION ( 'NONE',  ( 0.000000000000000000, 0.000000000000000000, 1.000000000000000000 ) ) ;
#12 = ORIENTED_EDGE ( 'NONE', *, *, #189, .T. ) ;
#13 = ADVANCED_FACE ( 'NONE', ( #70, #185 ), #57, .T. ) ;
#14 = COORDINATED_UNIVERSAL_TIME_OFFSET ( 1, 0, .AHEAD. ) ;
#15 = PERSON_AND_ORGANIZATION_ROLE ( 'creator' ) ;
#16 = VERTEX_POINT ( 'NONE', #102 ) ;
#17 = PERSON_AND_ORGANIZATION_ROLE ( 'creator' ) ;
#18 = ORIENTED_EDGE ( 'NONE', *, *, #165, .T. ) ;
#19 = ADVANCED_FACE ( 'NONE', ( #66 ), #86, .T. ) ;
#20 = DIRECTION ( 'NONE',  ( -0.000000000000000000, -0.000000000000000000, -1.000000000000000000 ) ) ;
#21 = AXIS2_PLACEMENT_3D ( 'NONE', #194, #27, #63 ) ;
#22 = COORDINATED_UNIVERSAL_TIME_OFFSET ( 1, 0, .AHEAD. ) ;
#23 = ADVANCED_FACE ( 'NONE', ( #4 ), #77, .T. ) ;
#24 = CIRCLE ( 'NONE', #248, 3.000000000000000444 ) ;
#25 = DIRECTION ( 'NONE',  ( 0.000000000000000000, 0.000000000000000000, 1.000000000000000000 ) ) ;
#26 = DIRECTION ( 'NONE',  ( 0.000000000000000000, 0.000000000000000000, 1.000000000000000000 ) ) ;
#27 = DIRECTION ( 'NONE',  ( 0.000000000000000000, 0.000000000000000000, 1.000000000000000000 ) ) ;
#28 = PRODUCT_RELATED_PRODUCT_CATEGORY ( 'detail', '', ( #147 ) ) ;
#29 = PERSON_AND_ORGANIZATION ( #135, #112 ) ;
#30 = CIRCLE ( 'NONE', #205, 6.000000000000000888 ) ;
#31 = ORIENTED_EDGE ( 'NONE', *, *, #215, .T. ) ;
#32 = APPLICATION_PROTOCOL_DEFINITION ( 'international standard', 'config_control_design', 1994, #110 ) ;
#33 = VERTEX_POINT ( 'NONE', #60 ) ;
#34 = PERSON_AND_ORGANIZATION ( #135, #112 ) ;
#35 = PERSON_AND_ORGANIZATION ( #135, #112 ) ;
#36 = ORIENTED_EDGE ( 'NONE', *, *, #105, .T. ) ;
#37 = APPROVAL_STATUS ( 'not_yet_approved' ) ;
#38 = CARTESIAN_POINT ( 'NONE',  ( 3.000000000000000444, 3.673940397442060361E-16, 5.000000000000000000 ) ) ;
#39 = DIRECTION ( 'NONE',  ( 1.000000000000000000, 0.000000000000000000, -0.000000000000000000 ) ) ;
#40 = DIRECTION ( 'NONE',  ( -0.000000000000000000, -0.000000000000000000, -1.000000000000000000 ) ) ;
#41 = APPROVAL_PERSON_ORGANIZATION ( #3, #72, #76 ) ;
#42 = AXIS2_PLACEMENT_3D ( 'NONE', #155, #40, #134 ) ;
#43 = CALENDAR_DATE ( 2023, 12, 2 ) ;
#44 = PLANE ( 'NONE',  #169 ) ;
#45 = EDGE_CURVE ( 'NONE', #51, #87, #92, .T. ) ;
#46 = CARTESIAN_POINT ( 'NONE',  ( 0.000000000000000000, 0.000000000000000000, 0.000000000000000000 ) ) ;
#47 = APPROVAL ( #69, 'NEURÈENÝ' ) ;
#48 = PRODUCT_DEFINITION_FORMATION_WITH_SPECIFIED_SOURCE ( 'LIBOVOLNÝ', '', #147, .NOT_KNOWN. ) ;
#49 = APPROVAL_DATE_TIME ( #184, #125 ) ;
#50 = ORIENTED_EDGE ( 'NONE', *, *, #244, .T. ) ;
#51 = VERTEX_POINT ( 'NONE', #235 ) ;
#52 = CALENDAR_DATE ( 2023, 12, 2 ) ;
#53 = EDGE_LOOP ( 'NONE', ( #204, #207, #71, #127 ) ) ;
#54 = PRODUCT_DEFINITION_SHAPE ( 'NONE', 'NONE',  #200 ) ;
#55 = APPROVAL_ROLE ( '' ) ;
#56 = EDGE_LOOP ( 'NONE', ( #223, #106, #246, #123 ) ) ;
#57 = PLANE ( 'NONE',  #78 ) ;
#58 = CALENDAR_DATE ( 2023, 12, 2 ) ;
#59 = CYLINDRICAL_SURFACE ( 'NONE', #42, 3.000000000000000444 ) ;
#60 = CARTESIAN_POINT ( 'NONE',  ( 3.000000000000000444, 3.673940397442060361E-16, 200.0000000000000000 ) ) ;
#61 = ADVANCED_FACE ( 'NONE', ( #214 ), #59, .T. ) ;
#62 = DIRECTION ( 'NONE',  ( 0.000000000000000000, 0.000000000000000000, 1.000000000000000000 ) ) ;
#63 = DIRECTION ( 'NONE',  ( 1.000000000000000000, 0.000000000000000000, 0.000000000000000000 ) ) ;
#64 = DIRECTION ( 'NONE',  ( 1.000000000000000000, 0.000000000000000000, 0.000000000000000000 ) ) ;
#65 = CARTESIAN_POINT ( 'NONE',  ( -6.000000000000000888, 0.000000000000000000, 5.000000000000000000 ) ) ;
#66 = FACE_OUTER_BOUND ( 'NONE', #56, .T. ) ;
#67 = EDGE_LOOP ( 'NONE', ( #146, #199, #36, #150 ) ) ;
#68 = APPLICATION_CONTEXT ( 'configuration controlled 3d designs of mechanical parts and assemblies' ) ;
#69 = APPROVAL_STATUS ( 'not_yet_approved' ) ;
#70 = FACE_BOUND ( 'NONE', #183, .T. ) ;
#71 = ORIENTED_EDGE ( 'NONE', *, *, #80, .T. ) ;
#72 = APPROVAL ( #133, 'NEURÈENÝ' ) ;
#73 = VERTEX_POINT ( 'NONE', #116 ) ;
#74 = DIRECTION ( 'NONE',  ( 0.000000000000000000, 0.000000000000000000, 1.000000000000000000 ) ) ;
#75 = CARTESIAN_POINT ( 'NONE',  ( -3.000000000000000444, 0.000000000000000000, 200.0000000000000000 ) ) ;
#76 = APPROVAL_ROLE ( '' ) ;
#77 = CYLINDRICAL_SURFACE ( 'NONE', #98, 3.000000000000000444 ) ;
#78 = AXIS2_PLACEMENT_3D ( 'NONE', #181, #11, #164 ) ;
#79 = DIRECTION ( 'NONE',  ( -1.000000000000000000, 0.000000000000000000, 0.000000000000000000 ) ) ;
#80 = EDGE_CURVE ( 'NONE', #89, #51, #209, .T. ) ;
#81 = DIRECTION ( 'NONE',  ( 0.000000000000000000, 0.000000000000000000, 1.000000000000000000 ) ) ;
#82 = APPROVAL_PERSON_ORGANIZATION ( #163, #47, #121 ) ;
#83 =( GEOMETRIC_REPRESENTATION_CONTEXT ( 3 ) GLOBAL_UNCERTAINTY_ASSIGNED_CONTEXT ( ( #131 ) ) GLOBAL_UNIT_ASSIGNED_CONTEXT ( ( #156, #9, #177 ) ) REPRESENTATION_CONTEXT ( 'NONE', 'WORKASPACE' ) );
#84 = CALENDAR_DATE ( 2023, 12, 2 ) ;
#85 = ORIENTED_EDGE ( 'NONE', *, *, #105, .F. ) ;
#86 = CYLINDRICAL_SURFACE ( 'NONE', #231, 6.000000000000000888 ) ;
#87 = VERTEX_POINT ( 'NONE', #38 ) ;
#88 = CC_DESIGN_PERSON_AND_ORGANIZATION_ASSIGNMENT ( #34, #17, ( #200 ) ) ;
#89 = VERTEX_POINT ( 'NONE', #75 ) ;
#90 = VERTEX_POINT ( 'NONE', #108 ) ;
#91 = PLANE ( 'NONE',  #97 ) ;
#92 = CIRCLE ( 'NONE', #212, 3.000000000000000444 ) ;
#93 = PERSON_AND_ORGANIZATION_ROLE ( 'design_supplier' ) ;
#94 = AXIS2_PLACEMENT_3D ( 'NONE', #140, #25, #220 ) ;
#95 = DIRECTION ( 'NONE',  ( 1.000000000000000000, 0.000000000000000000, 0.000000000000000000 ) ) ;
#96 = AXIS2_PLACEMENT_3D ( 'NONE', #197, #240, #158 ) ;
#97 = AXIS2_PLACEMENT_3D ( 'NONE', #170, #211, #39 ) ;
#98 = AXIS2_PLACEMENT_3D ( 'NONE', #188, #6, #79 ) ;
#99 = EDGE_LOOP ( 'NONE', ( #228, #128, #18, #225 ) ) ;
#100 = ADVANCED_FACE ( 'NONE', ( #187 ), #91, .T. ) ;
#101 = COORDINATED_UNIVERSAL_TIME_OFFSET ( 1, 0, .AHEAD. ) ;
#102 = CARTESIAN_POINT ( 'NONE',  ( 6.000000000000000888, 7.347880794884120722E-16, 5.000000000000000000 ) ) ;
#103 = DATE_AND_TIME ( #84, #148 ) ;
#104 = ORIENTED_EDGE ( 'NONE', *, *, #165, .F. ) ;
#105 = EDGE_CURVE ( 'NONE', #90, #73, #252, .T. ) ;
#106 = ORIENTED_EDGE ( 'NONE', *, *, #2, .F. ) ;
#107 = ORIENTED_EDGE ( 'NONE', *, *, #179, .F. ) ;
#108 = CARTESIAN_POINT ( 'NONE',  ( 6.000000000000000888, 7.347880794884120722E-16, 0.000000000000000000 ) ) ;
#109 = DIRECTION ( 'NONE',  ( 1.000000000000000000, 0.000000000000000000, 0.000000000000000000 ) ) ;
#110 = APPLICATION_CONTEXT ( 'configuration controlled 3d designs of mechanical parts and assemblies' ) ;
#111 = DIRECTION ( 'NONE',  ( -0.000000000000000000, -0.000000000000000000, -1.000000000000000000 ) ) ;
#112 = ORGANIZATION ( 'NEURÈENÝ', 'NEURÈENÝ', '' ) ;
#113 = VECTOR ( 'NONE', #136, 1000.000000000000000 ) ;
#114 = SECURITY_CLASSIFICATION_LEVEL ( 'unclassified' ) ;
#115 = CC_DESIGN_DATE_AND_TIME_ASSIGNMENT ( #213, #186, ( #234 ) ) ;
#116 = CARTESIAN_POINT ( 'NONE',  ( -6.000000000000000888, 0.000000000000000000, 0.000000000000000000 ) ) ;
#117 = AXIS2_PLACEMENT_3D ( 'NONE', #241, #160, #64 ) ;
#118 = DIRECTION ( 'NONE',  ( 1.000000000000000000, 0.000000000000000000, -0.000000000000000000 ) ) ;
#119 = FACE_OUTER_BOUND ( 'NONE', #202, .T. ) ;
#120 = CARTESIAN_POINT ( 'NONE',  ( 0.000000000000000000, 0.000000000000000000, 0.000000000000000000 ) ) ;
#121 = APPROVAL_ROLE ( '' ) ;
#122 = CARTESIAN_POINT ( 'NONE',  ( 0.000000000000000000, 0.000000000000000000, 5.000000000000000000 ) ) ;
#123 = ORIENTED_EDGE ( 'NONE', *, *, #179, .T. ) ;
#124 = ADVANCED_BREP_SHAPE_REPRESENTATION ( '64dd', ( #151, #190 ), #83 ) ;
#125 = APPROVAL ( #37, 'NEURÈENÝ' ) ;
#126 = DATE_AND_TIME ( #149, #159 ) ;
#127 = ORIENTED_EDGE ( 'NONE', *, *, #45, .T. ) ;
#128 = ORIENTED_EDGE ( 'NONE', *, *, #157, .T. ) ;
#129 = ORIENTED_EDGE ( 'NONE', *, *, #2, .T. ) ;
#130 = CIRCLE ( 'NONE', #21, 3.000000000000000444 ) ;
#131 = UNCERTAINTY_MEASURE_WITH_UNIT (LENGTH_MEASURE( 1.000000000000000082E-05 ), #156, 'distance_accuracy_value', 'NONE');
#132 = CC_DESIGN_PERSON_AND_ORGANIZATION_ASSIGNMENT ( #29, #145, ( #147 ) ) ;
#133 = APPROVAL_STATUS ( 'not_yet_approved' ) ;
#134 = DIRECTION ( 'NONE',  ( -1.000000000000000000, 0.000000000000000000, 0.000000000000000000 ) ) ;
#135 = PERSON ( 'NEURÈENÝ', 'NEURÈENÝ', 'NEURÈENÝ', ('NEURÈENÝ'), ('NEURÈENÝ'), ('NEURÈENÝ') ) ;
#136 = DIRECTION ( 'NONE',  ( -0.000000000000000000, -0.000000000000000000, -1.000000000000000000 ) ) ;
#137 = LINE ( 'NONE', #65, #242 ) ;
#138 = LOCAL_TIME ( 12, 40, 22.00000000000000000, #14 ) ;
#139 = DESIGN_CONTEXT ( 'detailed design', #110, 'design' ) ;
#140 = CARTESIAN_POINT ( 'NONE',  ( 0.000000000000000000, 0.000000000000000000, 5.000000000000000000 ) ) ;
#141 = DIRECTION ( 'NONE',  ( -0.000000000000000000, -0.000000000000000000, -1.000000000000000000 ) ) ;
#142 = CC_DESIGN_APPROVAL ( #72, ( #234 ) ) ;
#143 = EDGE_CURVE ( 'NONE', #16, #90, #180, .T. ) ;
#144 = APPLICATION_PROTOCOL_DEFINITION ( 'international standard', 'config_control_design', 1994, #68 ) ;
#145 = PERSON_AND_ORGANIZATION_ROLE ( 'design_owner' ) ;
#146 = ORIENTED_EDGE ( 'NONE', *, *, #244, .F. ) ;
#147 = PRODUCT ( '64dd', '64dd', '', ( #253 ) ) ;
#148 = LOCAL_TIME ( 12, 40, 22.00000000000000000, #245 ) ;
#149 = CALENDAR_DATE ( 2023, 12, 2 ) ;
#150 = ORIENTED_EDGE ( 'NONE', *, *, #226, .F. ) ;
#151 = MANIFOLD_SOLID_BREP ( 'Pøidat vysunutím3', #174 ) ;
#152 = DIRECTION ( 'NONE',  ( 0.000000000000000000, 0.000000000000000000, 1.000000000000000000 ) ) ;
#153 = DATE_AND_TIME ( #58, #172 ) ;
#154 = DIRECTION ( 'NONE',  ( 1.000000000000000000, 0.000000000000000000, 0.000000000000000000 ) ) ;
#155 = CARTESIAN_POINT ( 'NONE',  ( 0.000000000000000000, 0.000000000000000000, 200.0000000000000000 ) ) ;
#156 =( LENGTH_UNIT ( ) NAMED_UNIT ( * ) SI_UNIT ( .MILLI., .METRE. ) );
#157 = EDGE_CURVE ( 'NONE', #33, #87, #238, .T. ) ;
#158 = DIRECTION ( 'NONE',  ( -1.000000000000000000, 0.000000000000000000, 0.000000000000000000 ) ) ;
#159 = LOCAL_TIME ( 12, 40, 22.00000000000000000, #101 ) ;
#160 = DIRECTION ( 'NONE',  ( 0.000000000000000000, 0.000000000000000000, 1.000000000000000000 ) ) ;
#161 = CIRCLE ( 'NONE', #94, 6.000000000000000888 ) ;
#162 = CC_DESIGN_APPROVAL ( #47, ( #48 ) ) ;
#163 = PERSON_AND_ORGANIZATION ( #135, #112 ) ;
#164 = DIRECTION ( 'NONE',  ( 1.000000000000000000, 0.000000000000000000, -0.000000000000000000 ) ) ;
#165 = EDGE_CURVE ( 'NONE', #87, #51, #130, .T. ) ;
#166 = EDGE_LOOP ( 'NONE', ( #129, #50 ) ) ;
#167 = ORIENTED_EDGE ( 'NONE', *, *, #45, .F. ) ;
#168 = COORDINATED_UNIVERSAL_TIME_OFFSET ( 1, 0, .AHEAD. ) ;
#169 = AXIS2_PLACEMENT_3D ( 'NONE', #218, #81, #118 ) ;
#170 = CARTESIAN_POINT ( 'NONE',  ( 0.000000000000000000, 0.000000000000000000, 200.0000000000000000 ) ) ;
#171 = PERSON_AND_ORGANIZATION ( #135, #112 ) ;
#172 = LOCAL_TIME ( 12, 40, 22.00000000000000000, #22 ) ;
#173 = PERSON_AND_ORGANIZATION_ROLE ( 'classification_officer' ) ;
#174 = CLOSED_SHELL ( 'NONE', ( #23, #176, #19, #13, #250, #61, #100 ) ) ;
#175 = FACE_OUTER_BOUND ( 'NONE', #67, .T. ) ;
#176 = ADVANCED_FACE ( 'NONE', ( #175 ), #195, .T. ) ;
#177 =( NAMED_UNIT ( * ) SI_UNIT ( $, .STERADIAN. ) SOLID_ANGLE_UNIT ( ) );
#178 = VECTOR ( 'NONE', #196, 1000.000000000000000 ) ;
#179 = EDGE_CURVE ( 'NONE', #73, #90, #30, .T. ) ;
#180 = LINE ( 'NONE', #7, #113 ) ;
#181 = CARTESIAN_POINT ( 'NONE',  ( 0.000000000000000000, 0.000000000000000000, 5.000000000000000000 ) ) ;
#182 = EDGE_LOOP ( 'NONE', ( #31, #12 ) ) ;
#183 = EDGE_LOOP ( 'NONE', ( #167, #104 ) ) ;
#184 = DATE_AND_TIME ( #52, #138 ) ;
#185 = FACE_OUTER_BOUND ( 'NONE', #166, .T. ) ;
#186 = DATE_TIME_ROLE ( 'classification_date' ) ;
#187 = FACE_OUTER_BOUND ( 'NONE', #182, .T. ) ;
#188 = CARTESIAN_POINT ( 'NONE',  ( 0.000000000000000000, 0.000000000000000000, 200.0000000000000000 ) ) ;
#189 = EDGE_CURVE ( 'NONE', #33, #89, #24, .T. ) ;
#190 = AXIS2_PLACEMENT_3D ( 'NONE', #120, #224, #247 ) ;
#191 = CARTESIAN_POINT ( 'NONE',  ( 0.000000000000000000, 0.000000000000000000, 0.000000000000000000 ) ) ;
#192 = AXIS2_PLACEMENT_3D ( 'NONE', #251, #254, #229 ) ;
#193 = CARTESIAN_POINT ( 'NONE',  ( 0.000000000000000000, 0.000000000000000000, 5.000000000000000000 ) ) ;
#194 = CARTESIAN_POINT ( 'NONE',  ( 0.000000000000000000, 0.000000000000000000, 5.000000000000000000 ) ) ;
#195 = CYLINDRICAL_SURFACE ( 'NONE', #96, 6.000000000000000888 ) ;
#196 = DIRECTION ( 'NONE',  ( -0.000000000000000000, -0.000000000000000000, -1.000000000000000000 ) ) ;
#197 = CARTESIAN_POINT ( 'NONE',  ( 0.000000000000000000, 0.000000000000000000, 5.000000000000000000 ) ) ;
#198 = CARTESIAN_POINT ( 'NONE',  ( -6.000000000000000888, 0.000000000000000000, 5.000000000000000000 ) ) ;
#199 = ORIENTED_EDGE ( 'NONE', *, *, #143, .T. ) ;
#200 = PRODUCT_DEFINITION ( 'NEZNÁMÝ', '', #48, #139 ) ;
#201 = VECTOR ( 'NONE', #111, 1000.000000000000000 ) ;
#202 = EDGE_LOOP ( 'NONE', ( #107, #85 ) ) ;
#203 = APPROVAL_DATE_TIME ( #126, #47 ) ;
#204 = ORIENTED_EDGE ( 'NONE', *, *, #157, .F. ) ;
#205 = AXIS2_PLACEMENT_3D ( 'NONE', #46, #62, #239 ) ;
#206 = CC_DESIGN_PERSON_AND_ORGANIZATION_ASSIGNMENT ( #232, #173, ( #234 ) ) ;
#207 = ORIENTED_EDGE ( 'NONE', *, *, #215, .F. ) ;
#208 = DIRECTION ( 'NONE',  ( -1.000000000000000000, 0.000000000000000000, 0.000000000000000000 ) ) ;
#209 = LINE ( 'NONE', #237, #201 ) ;
#210 = CIRCLE ( 'NONE', #117, 3.000000000000000444 ) ;
#211 = DIRECTION ( 'NONE',  ( 0.000000000000000000, 0.000000000000000000, 1.000000000000000000 ) ) ;
#212 = AXIS2_PLACEMENT_3D ( 'NONE', #193, #74, #154 ) ;
#213 = DATE_AND_TIME ( #43, #230 ) ;
#214 = FACE_OUTER_BOUND ( 'NONE', #53, .T. ) ;
#215 = EDGE_CURVE ( 'NONE', #89, #33, #210, .T. ) ;
#216 = CARTESIAN_POINT ( 'NONE',  ( 3.000000000000000444, 3.673940397442060361E-16, 200.0000000000000000 ) ) ;
#217 = CC_DESIGN_SECURITY_CLASSIFICATION ( #234, ( #48 ) ) ;
#218 = CARTESIAN_POINT ( 'NONE',  ( 0.000000000000000000, 0.000000000000000000, 0.000000000000000000 ) ) ;
#219 = AXIS2_PLACEMENT_3D ( 'NONE', #191, #152, #109 ) ;
#220 = DIRECTION ( 'NONE',  ( 1.000000000000000000, 0.000000000000000000, 0.000000000000000000 ) ) ;
#221 = CARTESIAN_POINT ( 'NONE',  ( 0.000000000000000000, 0.000000000000000000, 200.0000000000000000 ) ) ;
#222 = CC_DESIGN_PERSON_AND_ORGANIZATION_ASSIGNMENT ( #171, #93, ( #48 ) ) ;
#223 = ORIENTED_EDGE ( 'NONE', *, *, #143, .F. ) ;
#224 = DIRECTION ( 'NONE',  ( 0.000000000000000000, 0.000000000000000000, 1.000000000000000000 ) ) ;
#225 = ORIENTED_EDGE ( 'NONE', *, *, #80, .F. ) ;
#226 = EDGE_CURVE ( 'NONE', #255, #73, #137, .T. ) ;
#227 = PERSON_AND_ORGANIZATION ( #135, #112 ) ;
#228 = ORIENTED_EDGE ( 'NONE', *, *, #189, .F. ) ;
#229 = DIRECTION ( 'NONE',  ( 1.000000000000000000, 0.000000000000000000, 0.000000000000000000 ) ) ;
#230 = LOCAL_TIME ( 12, 40, 22.00000000000000000, #168 ) ;
#231 = AXIS2_PLACEMENT_3D ( 'NONE', #122, #20, #208 ) ;
#232 = PERSON_AND_ORGANIZATION ( #135, #112 ) ;
#233 = SHAPE_DEFINITION_REPRESENTATION ( #54, #124 ) ;
#234 = SECURITY_CLASSIFICATION ( '', '', #114 ) ;
#235 = CARTESIAN_POINT ( 'NONE',  ( -3.000000000000000444, 0.000000000000000000, 5.000000000000000000 ) ) ;
#236 = CC_DESIGN_PERSON_AND_ORGANIZATION_ASSIGNMENT ( #35, #15, ( #48 ) ) ;
#237 = CARTESIAN_POINT ( 'NONE',  ( -3.000000000000000444, 0.000000000000000000, 200.0000000000000000 ) ) ;
#238 = LINE ( 'NONE', #216, #178 ) ;
#239 = DIRECTION ( 'NONE',  ( 1.000000000000000000, 0.000000000000000000, 0.000000000000000000 ) ) ;
#240 = DIRECTION ( 'NONE',  ( -0.000000000000000000, -0.000000000000000000, -1.000000000000000000 ) ) ;
#241 = CARTESIAN_POINT ( 'NONE',  ( 0.000000000000000000, 0.000000000000000000, 200.0000000000000000 ) ) ;
#242 = VECTOR ( 'NONE', #141, 1000.000000000000000 ) ;
#243 = CIRCLE ( 'NONE', #192, 6.000000000000000888 ) ;
#244 = EDGE_CURVE ( 'NONE', #16, #255, #161, .T. ) ;
#245 = COORDINATED_UNIVERSAL_TIME_OFFSET ( 1, 0, .AHEAD. ) ;
#246 = ORIENTED_EDGE ( 'NONE', *, *, #226, .T. ) ;
#247 = DIRECTION ( 'NONE',  ( 1.000000000000000000, 0.000000000000000000, 0.000000000000000000 ) ) ;
#248 = AXIS2_PLACEMENT_3D ( 'NONE', #221, #26, #95 ) ;
#249 = DATE_TIME_ROLE ( 'creation_date' ) ;
#250 = ADVANCED_FACE ( 'NONE', ( #119 ), #44, .F. ) ;
#251 = CARTESIAN_POINT ( 'NONE',  ( 0.000000000000000000, 0.000000000000000000, 5.000000000000000000 ) ) ;
#252 = CIRCLE ( 'NONE', #219, 6.000000000000000888 ) ;
#253 = MECHANICAL_CONTEXT ( 'NONE', #68, 'mechanical' ) ;
#254 = DIRECTION ( 'NONE',  ( 0.000000000000000000, 0.000000000000000000, 1.000000000000000000 ) ) ;
#255 = VERTEX_POINT ( 'NONE', #198 ) ;
ENDSEC;
END-ISO-10303-21;
