ISO-10303-21;
HEADER;
FILE_DESCRIPTION (( 'STEP AP203' ),
    '1' );
FILE_NAME ('e18b.STEP',
    '2022-07-07T12:18:35',
    ( '' ),
    ( '' ),
    'SwSTEP 2.0',
    'SolidWorks 2019',
    '' );
FILE_SCHEMA (( 'CONFIG_CONTROL_DESIGN' ));
ENDSEC;

DATA;
#1 = ORIENTED_EDGE ( 'NONE', *, *, #19, .F. ) ;
#2 = EDGE_CURVE ( 'NONE', #72, #18, #126, .T. ) ;
#3 = CC_DESIGN_APPROVAL ( #177, ( #181 ) ) ;
#4 = DIRECTION ( 'NONE',  ( 1.000000000000000000, 0.000000000000000000, 0.000000000000000000 ) ) ;
#5 = EDGE_LOOP ( 'NONE', ( #86, #256 ) ) ;
#6 = EDGE_CURVE ( 'NONE', #163, #187, #140, .T. ) ;
#7 = DIRECTION ( 'NONE',  ( -0.000000000000000000, -0.000000000000000000, -1.000000000000000000 ) ) ;
#8 = CYLINDRICAL_SURFACE ( 'NONE', #275, 13.00000000000000178 ) ;
#9 = DIRECTION ( 'NONE',  ( 1.000000000000000000, 0.000000000000000000, 0.000000000000000000 ) ) ;
#10 = DIRECTION ( 'NONE',  ( 1.000000000000000000, 0.000000000000000000, 0.000000000000000000 ) ) ;
#11 = CARTESIAN_POINT ( 'NONE',  ( 0.000000000000000000, 0.000000000000000000, 8.199999999999999289 ) ) ;
#12 = LINE ( 'NONE', #278, #147 ) ;
#13 = TOROIDAL_SURFACE ( 'NONE', #191, 10.20000000000000107, 0.2000000000000000111 ) ;
#14 = EDGE_CURVE ( 'NONE', #46, #119, #301, .T. ) ;
#15 = CC_DESIGN_SECURITY_CLASSIFICATION ( #171, ( #181 ) ) ;
#16 = DIRECTION ( 'NONE',  ( 1.000000000000000000, 0.000000000000000000, 0.000000000000000000 ) ) ;
#17 = CARTESIAN_POINT ( 'NONE',  ( -10.20000000000000107, 1.249139735130300365E-15, 8.000000000000000000 ) ) ;
#18 = VERTEX_POINT ( 'NONE', #287 ) ;
#19 = EDGE_CURVE ( 'NONE', #187, #163, #87, .T. ) ;
#20 = MECHANICAL_CONTEXT ( 'NONE', #109, 'mechanical' ) ;
#21 = VECTOR ( 'NONE', #179, 1000.000000000000000 ) ;
#22 = DATE_AND_TIME ( #266, #246 ) ;
#23 = FACE_OUTER_BOUND ( 'NONE', #98, .T. ) ;
#24 = EDGE_LOOP ( 'NONE', ( #286, #26, #143, #71 ) ) ;
#25 = ADVANCED_FACE ( 'NONE', ( #23 ), #116, .F. ) ;
#26 = ORIENTED_EDGE ( 'NONE', *, *, #82, .T. ) ;
#27 = ORIENTED_EDGE ( 'NONE', *, *, #149, .F. ) ;
#28 = DIRECTION ( 'NONE',  ( -1.000000000000000000, 0.000000000000000000, 0.000000000000000000 ) ) ;
#29 = APPLICATION_CONTEXT ( 'configuration controlled 3d designs of mechanical parts and assemblies' ) ;
#30 = CIRCLE ( 'NONE', #165, 0.2000000000000005107 ) ;
#31 = DIRECTION ( 'NONE',  ( 0.000000000000000000, 0.000000000000000000, -1.000000000000000000 ) ) ;
#32 = PLANE ( 'NONE',  #42 ) ;
#33 = CARTESIAN_POINT ( 'NONE',  ( 0.000000000000000000, 0.000000000000000000, 133.0000000000000000 ) ) ;
#34 = DIRECTION ( 'NONE',  ( 0.000000000000000000, 0.000000000000000000, 1.000000000000000000 ) ) ;
#35 = CALENDAR_DATE ( 2022, 7, 7 ) ;
#36 = DIRECTION ( 'NONE',  ( 1.000000000000000000, 0.000000000000000000, 0.000000000000000000 ) ) ;
#37 = ORIENTED_EDGE ( 'NONE', *, *, #253, .T. ) ;
#38 = PERSON_AND_ORGANIZATION_ROLE ( 'creator' ) ;
#39 = ORIENTED_EDGE ( 'NONE', *, *, #14, .F. ) ;
#40 = PERSON_AND_ORGANIZATION ( #268, #74 ) ;
#41 = DATE_TIME_ROLE ( 'classification_date' ) ;
#42 = AXIS2_PLACEMENT_3D ( 'NONE', #33, #270, #295 ) ;
#43 = ORIENTED_EDGE ( 'NONE', *, *, #190, .F. ) ;
#44 = APPROVAL ( #59, 'NEURÈENÝ' ) ;
#45 = CARTESIAN_POINT ( 'NONE',  ( 0.000000000000000000, 0.000000000000000000, 8.000000000000000000 ) ) ;
#46 = VERTEX_POINT ( 'NONE', #267 ) ;
#47 = COORDINATED_UNIVERSAL_TIME_OFFSET ( 1, 0, .AHEAD. ) ;
#48 = CARTESIAN_POINT ( 'NONE',  ( 0.000000000000000000, 0.000000000000000000, 8.000000000000000000 ) ) ;
#49 = CARTESIAN_POINT ( 'NONE',  ( -13.00000000000000178, 0.000000000000000000, 0.000000000000000000 ) ) ;
#50 = EDGE_CURVE ( 'NONE', #18, #72, #232, .T. ) ;
#51 = DIRECTION ( 'NONE',  ( -0.000000000000000000, -0.000000000000000000, -1.000000000000000000 ) ) ;
#52 = CC_DESIGN_DATE_AND_TIME_ASSIGNMENT ( #92, #41, ( #171 ) ) ;
#53 = DIRECTION ( 'NONE',  ( -1.000000000000000000, 0.000000000000000000, 0.000000000000000000 ) ) ;
#54 = LOCAL_TIME ( 14, 18, 35.00000000000000000, #306 ) ;
#55 = DIRECTION ( 'NONE',  ( -0.000000000000000000, -0.000000000000000000, -1.000000000000000000 ) ) ;
#56 = LINE ( 'NONE', #150, #180 ) ;
#57 = DATE_TIME_ROLE ( 'creation_date' ) ;
#58 = CC_DESIGN_APPROVAL ( #161, ( #171 ) ) ;
#59 = APPROVAL_STATUS ( 'not_yet_approved' ) ;
#60 = CARTESIAN_POINT ( 'NONE',  ( 0.000000000000000000, 0.000000000000000000, 8.199999999999999289 ) ) ;
#61 = EDGE_LOOP ( 'NONE', ( #91, #234, #283, #217 ) ) ;
#62 = VERTEX_POINT ( 'NONE', #77 ) ;
#63 = PERSON_AND_ORGANIZATION_ROLE ( 'design_supplier' ) ;
#64 = AXIS2_PLACEMENT_3D ( 'NONE', #100, #269, #244 ) ;
#65 = TOROIDAL_SURFACE ( 'NONE', #285, 10.20000000000000107, 0.2000000000000000111 ) ;
#66 = APPROVAL_PERSON_ORGANIZATION ( #153, #177, #167 ) ;
#67 = ADVANCED_FACE ( 'NONE', ( #292 ), #198, .T. ) ;
#68 = EDGE_LOOP ( 'NONE', ( #39, #265, #194, #142 ) ) ;
#69 = AXIS2_PLACEMENT_3D ( 'NONE', #48, #144, #9 ) ;
#70 = ADVANCED_FACE ( 'NONE', ( #223 ), #8, .T. ) ;
#71 = ORIENTED_EDGE ( 'NONE', *, *, #137, .F. ) ;
#72 = VERTEX_POINT ( 'NONE', #146 ) ;
#73 = LOCAL_TIME ( 14, 18, 35.00000000000000000, #156 ) ;
#74 = ORGANIZATION ( 'NEURÈENÝ', 'NEURÈENÝ', '' ) ;
#75 = DIRECTION ( 'NONE',  ( -1.000000000000000000, 0.000000000000000000, 0.000000000000000000 ) ) ;
#76 = DIRECTION ( 'NONE',  ( 0.000000000000000000, -1.000000000000000000, 0.000000000000000000 ) ) ;
#77 = CARTESIAN_POINT ( 'NONE',  ( 10.20000000000000107, 0.000000000000000000, 8.000000000000000000 ) ) ;
#78 = AXIS2_PLACEMENT_3D ( 'NONE', #104, #129, #296 ) ;
#79 = DIRECTION ( 'NONE',  ( 0.000000000000000000, 0.000000000000000000, 1.000000000000000000 ) ) ;
#80 = PRODUCT ( 'e18b', 'e18b', '', ( #20 ) ) ;
#81 = ADVANCED_BREP_SHAPE_REPRESENTATION ( 'e18b', ( #227, #212 ), #255 ) ;
#82 = EDGE_CURVE ( 'NONE', #93, #263, #151, .T. ) ;
#83 = DIRECTION ( 'NONE',  ( -0.000000000000000000, -0.000000000000000000, -1.000000000000000000 ) ) ;
#84 = DIRECTION ( 'NONE',  ( 0.000000000000000000, 0.000000000000000000, 1.000000000000000000 ) ) ;
#85 = PERSON_AND_ORGANIZATION ( #268, #74 ) ;
#86 = ORIENTED_EDGE ( 'NONE', *, *, #235, .T. ) ;
#87 = CIRCLE ( 'NONE', #264, 13.00000000000000178 ) ;
#88 = APPROVAL_ROLE ( '' ) ;
#89 = ORIENTED_EDGE ( 'NONE', *, *, #2, .T. ) ;
#90 = PERSON_AND_ORGANIZATION_ROLE ( 'classification_officer' ) ;
#91 = ORIENTED_EDGE ( 'NONE', *, *, #128, .F. ) ;
#92 = DATE_AND_TIME ( #260, #54 ) ;
#93 = VERTEX_POINT ( 'NONE', #218 ) ;
#94 = EDGE_CURVE ( 'NONE', #93, #134, #105, .T. ) ;
#95 = DIRECTION ( 'NONE',  ( 0.000000000000000000, 0.000000000000000000, 1.000000000000000000 ) ) ;
#96 = ADVANCED_FACE ( 'NONE', ( #123 ), #290, .T. ) ;
#97 = AXIS2_PLACEMENT_3D ( 'NONE', #101, #152, #199 ) ;
#98 = EDGE_LOOP ( 'NONE', ( #216, #1 ) ) ;
#99 = CARTESIAN_POINT ( 'NONE',  ( 13.00000000000000178, 1.592040838891559293E-15, 8.000000000000000000 ) ) ;
#100 = CARTESIAN_POINT ( 'NONE',  ( -10.20000000000000107, 1.249139735130300365E-15, 8.199999999999999289 ) ) ;
#101 = CARTESIAN_POINT ( 'NONE',  ( 0.000000000000000000, 0.000000000000000000, 133.0000000000000000 ) ) ;
#102 = FACE_BOUND ( 'NONE', #5, .T. ) ;
#103 = FACE_OUTER_BOUND ( 'NONE', #68, .T. ) ;
#104 = CARTESIAN_POINT ( 'NONE',  ( 0.000000000000000000, 0.000000000000000000, 8.000000000000000000 ) ) ;
#105 = CIRCLE ( 'NONE', #141, 10.00000000000000000 ) ;
#106 = CC_DESIGN_PERSON_AND_ORGANIZATION_ASSIGNMENT ( #262, #90, ( #171 ) ) ;
#107 = DIRECTION ( 'NONE',  ( 1.000000000000000000, 0.000000000000000000, 0.000000000000000000 ) ) ;
#108 = DIRECTION ( 'NONE',  ( 0.000000000000000000, 0.000000000000000000, 1.000000000000000000 ) ) ;
#109 = APPLICATION_CONTEXT ( 'configuration controlled 3d designs of mechanical parts and assemblies' ) ;
#110 = PERSON_AND_ORGANIZATION_ROLE ( 'design_owner' ) ;
#111 = ORIENTED_EDGE ( 'NONE', *, *, #137, .T. ) ;
#112 = CALENDAR_DATE ( 2022, 7, 7 ) ;
#113 = CIRCLE ( 'NONE', #205, 10.20000000000000107 ) ;
#114 = APPROVAL_DATE_TIME ( #22, #177 ) ;
#115 = SHAPE_DEFINITION_REPRESENTATION ( #200, #81 ) ;
#116 = PLANE ( 'NONE',  #208 ) ;
#117 = ADVANCED_FACE ( 'NONE', ( #103 ), #201, .T. ) ;
#118 = ORIENTED_EDGE ( 'NONE', *, *, #50, .T. ) ;
#119 = VERTEX_POINT ( 'NONE', #219 ) ;
#120 = CALENDAR_DATE ( 2022, 7, 7 ) ;
#121 = EDGE_LOOP ( 'NONE', ( #195, #257, #111, #233 ) ) ;
#122 = CARTESIAN_POINT ( 'NONE',  ( 0.000000000000000000, 0.000000000000000000, 8.000000000000000000 ) ) ;
#123 = FACE_OUTER_BOUND ( 'NONE', #288, .T. ) ;
#124 = CARTESIAN_POINT ( 'NONE',  ( 13.00000000000000178, 1.592040838891559293E-15, 0.000000000000000000 ) ) ;
#125 = CARTESIAN_POINT ( 'NONE',  ( 0.000000000000000000, 0.000000000000000000, 133.0000000000000000 ) ) ;
#126 = CIRCLE ( 'NONE', #279, 13.00000000000000178 ) ;
#127 = CARTESIAN_POINT ( 'NONE',  ( 0.000000000000000000, 0.000000000000000000, 8.000000000000000000 ) ) ;
#128 = EDGE_CURVE ( 'NONE', #72, #187, #291, .T. ) ;
#129 = DIRECTION ( 'NONE',  ( -0.000000000000000000, -0.000000000000000000, -1.000000000000000000 ) ) ;
#130 = APPROVAL_DATE_TIME ( #277, #44 ) ;
#131 = CARTESIAN_POINT ( 'NONE',  ( 0.000000000000000000, 0.000000000000000000, 0.000000000000000000 ) ) ;
#132 = DIRECTION ( 'NONE',  ( 0.000000000000000000, 0.000000000000000000, 1.000000000000000000 ) ) ;
#133 = APPROVAL_PERSON_ORGANIZATION ( #40, #161, #213 ) ;
#134 = VERTEX_POINT ( 'NONE', #170 ) ;
#135 = EDGE_LOOP ( 'NONE', ( #193, #43, #37, #241 ) ) ;
#136 = PERSON_AND_ORGANIZATION ( #268, #74 ) ;
#137 = EDGE_CURVE ( 'NONE', #134, #62, #30, .T. ) ;
#138 = DATE_AND_TIME ( #120, #160 ) ;
#139 = APPROVAL_PERSON_ORGANIZATION ( #85, #44, #88 ) ;
#140 = CIRCLE ( 'NONE', #184, 13.00000000000000178 ) ;
#141 = AXIS2_PLACEMENT_3D ( 'NONE', #11, #174, #10 ) ;
#142 = ORIENTED_EDGE ( 'NONE', *, *, #253, .F. ) ;
#143 = ORIENTED_EDGE ( 'NONE', *, *, #235, .F. ) ;
#144 = DIRECTION ( 'NONE',  ( 0.000000000000000000, 0.000000000000000000, 1.000000000000000000 ) ) ;
#145 = FACE_OUTER_BOUND ( 'NONE', #24, .T. ) ;
#146 = CARTESIAN_POINT ( 'NONE',  ( 13.00000000000000178, 1.592040838891559293E-15, 8.000000000000000000 ) ) ;
#147 = VECTOR ( 'NONE', #83, 1000.000000000000000 ) ;
#148 = CC_DESIGN_PERSON_AND_ORGANIZATION_ASSIGNMENT ( #237, #192, ( #181 ) ) ;
#149 = EDGE_CURVE ( 'NONE', #18, #163, #56, .T. ) ;
#150 = CARTESIAN_POINT ( 'NONE',  ( -13.00000000000000178, 0.000000000000000000, 8.000000000000000000 ) ) ;
#151 = CIRCLE ( 'NONE', #64, 0.2000000000000005107 ) ;
#152 = DIRECTION ( 'NONE',  ( -0.000000000000000000, -0.000000000000000000, -1.000000000000000000 ) ) ;
#153 = PERSON_AND_ORGANIZATION ( #268, #74 ) ;
#154 = CIRCLE ( 'NONE', #78, 10.20000000000000107 ) ;
#155 = FACE_OUTER_BOUND ( 'NONE', #121, .T. ) ;
#156 = COORDINATED_UNIVERSAL_TIME_OFFSET ( 1, 0, .AHEAD. ) ;
#157 = PRODUCT_DEFINITION ( 'NEZNÁMÝ', '', #181, #242 ) ;
#158 = APPLICATION_PROTOCOL_DEFINITION ( 'international standard', 'config_control_design', 1994, #109 ) ;
#159 = ORIENTED_EDGE ( 'NONE', *, *, #19, .T. ) ;
#160 = LOCAL_TIME ( 14, 18, 35.00000000000000000, #47 ) ;
#161 = APPROVAL ( #236, 'NEURÈENÝ' ) ;
#162 =( NAMED_UNIT ( * ) SI_UNIT ( $, .STERADIAN. ) SOLID_ANGLE_UNIT ( ) );
#163 = VERTEX_POINT ( 'NONE', #49 ) ;
#164 = CC_DESIGN_PERSON_AND_ORGANIZATION_ASSIGNMENT ( #136, #63, ( #181 ) ) ;
#165 = AXIS2_PLACEMENT_3D ( 'NONE', #173, #76, #31 ) ;
#166 = ORIENTED_EDGE ( 'NONE', *, *, #128, .T. ) ;
#167 = APPROVAL_ROLE ( '' ) ;
#168 = DIRECTION ( 'NONE',  ( 1.000000000000000000, 0.000000000000000000, -0.000000000000000000 ) ) ;
#169 = UNCERTAINTY_MEASURE_WITH_UNIT (LENGTH_MEASURE( 1.000000000000000082E-05 ), #298, 'distance_accuracy_value', 'NONE');
#170 = CARTESIAN_POINT ( 'NONE',  ( 10.00000000000000000, 1.224646799147353256E-15, 8.199999999999999289 ) ) ;
#171 = SECURITY_CLASSIFICATION ( '', '', #305 ) ;
#172 = FACE_OUTER_BOUND ( 'NONE', #185, .T. ) ;
#173 = CARTESIAN_POINT ( 'NONE',  ( 10.20000000000000107, 0.000000000000000000, 8.199999999999999289 ) ) ;
#174 = DIRECTION ( 'NONE',  ( 0.000000000000000000, 0.000000000000000000, 1.000000000000000000 ) ) ;
#175 = AXIS2_PLACEMENT_3D ( 'NONE', #60, #84, #107 ) ;
#176 = FACE_OUTER_BOUND ( 'NONE', #230, .T. ) ;
#177 = APPROVAL ( #249, 'NEURÈENÝ' ) ;
#178 = CARTESIAN_POINT ( 'NONE',  ( 10.00000000000000000, 1.224646799147353256E-15, 133.0000000000000000 ) ) ;
#179 = DIRECTION ( 'NONE',  ( -0.000000000000000000, -0.000000000000000000, -1.000000000000000000 ) ) ;
#180 = VECTOR ( 'NONE', #203, 1000.000000000000000 ) ;
#181 = PRODUCT_DEFINITION_FORMATION_WITH_SPECIFIED_SOURCE ( 'LIBOVOLNÝ', '', #80, .NOT_KNOWN. ) ;
#182 = DIRECTION ( 'NONE',  ( 1.000000000000000000, 0.000000000000000000, -0.000000000000000000 ) ) ;
#183 = LINE ( 'NONE', #178, #21 ) ;
#184 = AXIS2_PLACEMENT_3D ( 'NONE', #228, #132, #16 ) ;
#185 = EDGE_LOOP ( 'NONE', ( #303, #239 ) ) ;
#186 = DIRECTION ( 'NONE',  ( 0.000000000000000000, 0.000000000000000000, 1.000000000000000000 ) ) ;
#187 = VERTEX_POINT ( 'NONE', #124 ) ;
#188 = VECTOR ( 'NONE', #55, 1000.000000000000000 ) ;
#189 = APPROVAL_DATE_TIME ( #138, #161 ) ;
#190 = EDGE_CURVE ( 'NONE', #119, #46, #211, .T. ) ;
#191 = AXIS2_PLACEMENT_3D ( 'NONE', #225, #276, #251 ) ;
#192 = PERSON_AND_ORGANIZATION_ROLE ( 'creator' ) ;
#193 = ORIENTED_EDGE ( 'NONE', *, *, #297, .F. ) ;
#194 = ORIENTED_EDGE ( 'NONE', *, *, #261, .T. ) ;
#195 = ORIENTED_EDGE ( 'NONE', *, *, #82, .F. ) ;
#196 = CC_DESIGN_APPROVAL ( #44, ( #157 ) ) ;
#197 = CARTESIAN_POINT ( 'NONE',  ( 0.000000000000000000, 0.000000000000000000, 133.0000000000000000 ) ) ;
#198 = CYLINDRICAL_SURFACE ( 'NONE', #97, 10.00000000000000000 ) ;
#199 = DIRECTION ( 'NONE',  ( -1.000000000000000000, 0.000000000000000000, 0.000000000000000000 ) ) ;
#200 = PRODUCT_DEFINITION_SHAPE ( 'NONE', 'NONE',  #157 ) ;
#201 = CYLINDRICAL_SURFACE ( 'NONE', #272, 10.00000000000000000 ) ;
#202 = LOCAL_TIME ( 14, 18, 35.00000000000000000, #231 ) ;
#203 = DIRECTION ( 'NONE',  ( -0.000000000000000000, -0.000000000000000000, -1.000000000000000000 ) ) ;
#204 = CC_DESIGN_PERSON_AND_ORGANIZATION_ASSIGNMENT ( #282, #110, ( #80 ) ) ;
#205 = AXIS2_PLACEMENT_3D ( 'NONE', #127, #51, #222 ) ;
#206 = DIRECTION ( 'NONE',  ( 1.000000000000000000, 0.000000000000000000, 0.000000000000000000 ) ) ;
#207 = CARTESIAN_POINT ( 'NONE',  ( 0.000000000000000000, 0.000000000000000000, 0.000000000000000000 ) ) ;
#208 = AXIS2_PLACEMENT_3D ( 'NONE', #214, #95, #168 ) ;
#209 = ORIENTED_EDGE ( 'NONE', *, *, #2, .F. ) ;
#210 = DATE_AND_TIME ( #112, #73 ) ;
#211 = CIRCLE ( 'NONE', #304, 10.00000000000000000 ) ;
#212 = AXIS2_PLACEMENT_3D ( 'NONE', #131, #186, #206 ) ;
#213 = APPROVAL_ROLE ( '' ) ;
#214 = CARTESIAN_POINT ( 'NONE',  ( 0.000000000000000000, 0.000000000000000000, 0.000000000000000000 ) ) ;
#215 = CIRCLE ( 'NONE', #175, 10.00000000000000000 ) ;
#216 = ORIENTED_EDGE ( 'NONE', *, *, #6, .F. ) ;
#217 = ORIENTED_EDGE ( 'NONE', *, *, #6, .T. ) ;
#218 = CARTESIAN_POINT ( 'NONE',  ( -10.00000000000000000, 0.000000000000000000, 8.199999999999999289 ) ) ;
#219 = CARTESIAN_POINT ( 'NONE',  ( -10.00000000000000000, 0.000000000000000000, 133.0000000000000000 ) ) ;
#220 = DIRECTION ( 'NONE',  ( 1.000000000000000000, 0.000000000000000000, 0.000000000000000000 ) ) ;
#221 = AXIS2_PLACEMENT_3D ( 'NONE', #238, #108, #4 ) ;
#222 = DIRECTION ( 'NONE',  ( 1.000000000000000000, 0.000000000000000000, 0.000000000000000000 ) ) ;
#223 = FACE_OUTER_BOUND ( 'NONE', #61, .T. ) ;
#224 = ADVANCED_FACE ( 'NONE', ( #172 ), #32, .T. ) ;
#225 = CARTESIAN_POINT ( 'NONE',  ( 0.000000000000000000, 0.000000000000000000, 8.199999999999999289 ) ) ;
#226 = CARTESIAN_POINT ( 'NONE',  ( 0.000000000000000000, 0.000000000000000000, 8.000000000000000000 ) ) ;
#227 = MANIFOLD_SOLID_BREP ( 'Zaoblit1', #258 ) ;
#228 = CARTESIAN_POINT ( 'NONE',  ( 0.000000000000000000, 0.000000000000000000, 0.000000000000000000 ) ) ;
#229 = PERSON_AND_ORGANIZATION ( #268, #74 ) ;
#230 = EDGE_LOOP ( 'NONE', ( #118, #89 ) ) ;
#231 = COORDINATED_UNIVERSAL_TIME_OFFSET ( 1, 0, .AHEAD. ) ;
#232 = CIRCLE ( 'NONE', #69, 13.00000000000000178 ) ;
#233 = ORIENTED_EDGE ( 'NONE', *, *, #284, .F. ) ;
#234 = ORIENTED_EDGE ( 'NONE', *, *, #50, .F. ) ;
#235 = EDGE_CURVE ( 'NONE', #62, #263, #113, .T. ) ;
#236 = APPROVAL_STATUS ( 'not_yet_approved' ) ;
#237 = PERSON_AND_ORGANIZATION ( #268, #74 ) ;
#238 = CARTESIAN_POINT ( 'NONE',  ( 0.000000000000000000, 0.000000000000000000, 133.0000000000000000 ) ) ;
#239 = ORIENTED_EDGE ( 'NONE', *, *, #14, .T. ) ;
#240 = COORDINATED_UNIVERSAL_TIME_OFFSET ( 1, 0, .AHEAD. ) ;
#241 = ORIENTED_EDGE ( 'NONE', *, *, #94, .T. ) ;
#242 = DESIGN_CONTEXT ( 'detailed design', #29, 'design' ) ;
#243 = DIRECTION ( 'NONE',  ( 1.000000000000000000, 0.000000000000000000, 0.000000000000000000 ) ) ;
#244 = DIRECTION ( 'NONE',  ( -1.000000000000000000, 1.224646799147353207E-16, 0.000000000000000000 ) ) ;
#245 = ADVANCED_FACE ( 'NONE', ( #145 ), #65, .F. ) ;
#246 = LOCAL_TIME ( 14, 18, 35.00000000000000000, #240 ) ;
#247 = DIRECTION ( 'NONE',  ( -0.000000000000000000, -0.000000000000000000, -1.000000000000000000 ) ) ;
#248 = DIRECTION ( 'NONE',  ( 0.000000000000000000, 0.000000000000000000, 1.000000000000000000 ) ) ;
#249 = APPROVAL_STATUS ( 'not_yet_approved' ) ;
#250 = ADVANCED_FACE ( 'NONE', ( #102, #176 ), #274, .T. ) ;
#251 = DIRECTION ( 'NONE',  ( 1.000000000000000000, 0.000000000000000000, 0.000000000000000000 ) ) ;
#252 = DIRECTION ( 'NONE',  ( 0.000000000000000000, 0.000000000000000000, 1.000000000000000000 ) ) ;
#253 = EDGE_CURVE ( 'NONE', #119, #93, #12, .T. ) ;
#254 =( NAMED_UNIT ( * ) PLANE_ANGLE_UNIT ( ) SI_UNIT ( $, .RADIAN. ) );
#255 =( GEOMETRIC_REPRESENTATION_CONTEXT ( 3 ) GLOBAL_UNCERTAINTY_ASSIGNED_CONTEXT ( ( #169 ) ) GLOBAL_UNIT_ASSIGNED_CONTEXT ( ( #298, #254, #162 ) ) REPRESENTATION_CONTEXT ( 'NONE', 'WORKASPACE' ) );
#256 = ORIENTED_EDGE ( 'NONE', *, *, #284, .T. ) ;
#257 = ORIENTED_EDGE ( 'NONE', *, *, #261, .F. ) ;
#258 = CLOSED_SHELL ( 'NONE', ( #245, #117, #96, #70, #250, #25, #67, #224, #259 ) ) ;
#259 = ADVANCED_FACE ( 'NONE', ( #155 ), #13, .F. ) ;
#260 = CALENDAR_DATE ( 2022, 7, 7 ) ;
#261 = EDGE_CURVE ( 'NONE', #134, #93, #215, .T. ) ;
#262 = PERSON_AND_ORGANIZATION ( #268, #74 ) ;
#263 = VERTEX_POINT ( 'NONE', #17 ) ;
#264 = AXIS2_PLACEMENT_3D ( 'NONE', #207, #300, #280 ) ;
#265 = ORIENTED_EDGE ( 'NONE', *, *, #297, .T. ) ;
#266 = CALENDAR_DATE ( 2022, 7, 7 ) ;
#267 = CARTESIAN_POINT ( 'NONE',  ( 10.00000000000000000, 1.224646799147353256E-15, 133.0000000000000000 ) ) ;
#268 = PERSON ( 'NEURÈENÝ', 'NEURÈENÝ', 'NEURÈENÝ', ('NEURÈENÝ'), ('NEURÈENÝ'), ('NEURÈENÝ') ) ;
#269 = DIRECTION ( 'NONE',  ( 1.224646799147353207E-16, 1.000000000000000000, -0.000000000000000000 ) ) ;
#270 = DIRECTION ( 'NONE',  ( 0.000000000000000000, 0.000000000000000000, 1.000000000000000000 ) ) ;
#271 = DIRECTION ( 'NONE',  ( -0.000000000000000000, -0.000000000000000000, -1.000000000000000000 ) ) ;
#272 = AXIS2_PLACEMENT_3D ( 'NONE', #197, #7, #75 ) ;
#273 = CARTESIAN_POINT ( 'NONE',  ( 0.000000000000000000, 0.000000000000000000, 8.000000000000000000 ) ) ;
#274 = PLANE ( 'NONE',  #289 ) ;
#275 = AXIS2_PLACEMENT_3D ( 'NONE', #122, #271, #53 ) ;
#276 = DIRECTION ( 'NONE',  ( 0.000000000000000000, 0.000000000000000000, 1.000000000000000000 ) ) ;
#277 = DATE_AND_TIME ( #35, #202 ) ;
#278 = CARTESIAN_POINT ( 'NONE',  ( -10.00000000000000000, 0.000000000000000000, 133.0000000000000000 ) ) ;
#279 = AXIS2_PLACEMENT_3D ( 'NONE', #45, #252, #36 ) ;
#280 = DIRECTION ( 'NONE',  ( 1.000000000000000000, 0.000000000000000000, 0.000000000000000000 ) ) ;
#281 = CC_DESIGN_DATE_AND_TIME_ASSIGNMENT ( #210, #57, ( #157 ) ) ;
#282 = PERSON_AND_ORGANIZATION ( #268, #74 ) ;
#283 = ORIENTED_EDGE ( 'NONE', *, *, #149, .T. ) ;
#284 = EDGE_CURVE ( 'NONE', #263, #62, #154, .T. ) ;
#285 = AXIS2_PLACEMENT_3D ( 'NONE', #294, #79, #243 ) ;
#286 = ORIENTED_EDGE ( 'NONE', *, *, #94, .F. ) ;
#287 = CARTESIAN_POINT ( 'NONE',  ( -13.00000000000000178, 0.000000000000000000, 8.000000000000000000 ) ) ;
#288 = EDGE_LOOP ( 'NONE', ( #209, #166, #159, #27 ) ) ;
#289 = AXIS2_PLACEMENT_3D ( 'NONE', #226, #34, #182 ) ;
#290 = CYLINDRICAL_SURFACE ( 'NONE', #293, 13.00000000000000178 ) ;
#291 = LINE ( 'NONE', #99, #188 ) ;
#292 = FACE_OUTER_BOUND ( 'NONE', #135, .T. ) ;
#293 = AXIS2_PLACEMENT_3D ( 'NONE', #273, #247, #28 ) ;
#294 = CARTESIAN_POINT ( 'NONE',  ( 0.000000000000000000, 0.000000000000000000, 8.199999999999999289 ) ) ;
#295 = DIRECTION ( 'NONE',  ( 1.000000000000000000, 0.000000000000000000, -0.000000000000000000 ) ) ;
#296 = DIRECTION ( 'NONE',  ( 1.000000000000000000, 0.000000000000000000, 0.000000000000000000 ) ) ;
#297 = EDGE_CURVE ( 'NONE', #46, #134, #183, .T. ) ;
#298 =( LENGTH_UNIT ( ) NAMED_UNIT ( * ) SI_UNIT ( .MILLI., .METRE. ) );
#299 = CC_DESIGN_PERSON_AND_ORGANIZATION_ASSIGNMENT ( #229, #38, ( #157 ) ) ;
#300 = DIRECTION ( 'NONE',  ( 0.000000000000000000, 0.000000000000000000, 1.000000000000000000 ) ) ;
#301 = CIRCLE ( 'NONE', #221, 10.00000000000000000 ) ;
#302 = APPLICATION_PROTOCOL_DEFINITION ( 'international standard', 'config_control_design', 1994, #29 ) ;
#303 = ORIENTED_EDGE ( 'NONE', *, *, #190, .T. ) ;
#304 = AXIS2_PLACEMENT_3D ( 'NONE', #125, #248, #220 ) ;
#305 = SECURITY_CLASSIFICATION_LEVEL ( 'unclassified' ) ;
#306 = COORDINATED_UNIVERSAL_TIME_OFFSET ( 1, 0, .AHEAD. ) ;
#307 = PRODUCT_RELATED_PRODUCT_CATEGORY ( 'detail', '', ( #80 ) ) ;
ENDSEC;
END-ISO-10303-21;
