ISO-10303-21;
HEADER;
FILE_DESCRIPTION (( 'STEP AP203' ),
    '1' );
FILE_NAME ('3c3c.STEP',
    '2022-07-07T12:40:21',
    ( '' ),
    ( '' ),
    'SwSTEP 2.0',
    'SolidWorks 2019',
    '' );
FILE_SCHEMA (( 'CONFIG_CONTROL_DESIGN' ));
ENDSEC;

DATA;
#1 = ADVANCED_FACE ( 'NONE', ( #244 ), #8, .F. ) ;
#2 = DIRECTION ( 'NONE',  ( 0.000000000000000000, 0.000000000000000000, 1.000000000000000000 ) ) ;
#3 =( NAMED_UNIT ( * ) PLANE_ANGLE_UNIT ( ) SI_UNIT ( $, .RADIAN. ) );
#4 = CALENDAR_DATE ( 2022, 7, 7 ) ;
#5 = CC_DESIGN_APPROVAL ( #240, ( #304 ) ) ;
#6 = CARTESIAN_POINT ( 'NONE',  ( 3.100000000000000089, 3.796405077356794918E-16, 205.0000000000000284 ) ) ;
#7 = CC_DESIGN_PERSON_AND_ORGANIZATION_ASSIGNMENT ( #132, #203, ( #174 ) ) ;
#8 = PLANE ( 'NONE',  #252 ) ;
#9 = PERSON_AND_ORGANIZATION_ROLE ( 'design_supplier' ) ;
#10 = DIRECTION ( 'NONE',  ( -0.000000000000000000, -0.000000000000000000, -1.000000000000000000 ) ) ;
#11 = ORIENTED_EDGE ( 'NONE', *, *, #128, .T. ) ;
#12 = APPROVAL_ROLE ( '' ) ;
#13 = CARTESIAN_POINT ( 'NONE',  ( 0.000000000000000000, 0.000000000000000000, 5.000000000000000000 ) ) ;
#14 = FACE_OUTER_BOUND ( 'NONE', #177, .T. ) ;
#15 = CC_DESIGN_APPROVAL ( #110, ( #279 ) ) ;
#16 = EDGE_CURVE ( 'NONE', #299, #45, #293, .T. ) ;
#17 = AXIS2_PLACEMENT_3D ( 'NONE', #124, #193, #171 ) ;
#18 = ORIENTED_EDGE ( 'NONE', *, *, #128, .F. ) ;
#19 = APPROVAL_PERSON_ORGANIZATION ( #102, #110, #12 ) ;
#20 = ORIENTED_EDGE ( 'NONE', *, *, #153, .F. ) ;
#21 = DIRECTION ( 'NONE',  ( 0.000000000000000000, 0.000000000000000000, 1.000000000000000000 ) ) ;
#22 = CARTESIAN_POINT ( 'NONE',  ( 0.000000000000000000, 0.000000000000000000, 5.000000000000000000 ) ) ;
#23 = CIRCLE ( 'NONE', #167, 3.299999999999999822 ) ;
#24 = VECTOR ( 'NONE', #208, 1000.000000000000000 ) ;
#25 = CARTESIAN_POINT ( 'NONE',  ( 0.000000000000000000, 0.000000000000000000, 0.000000000000000000 ) ) ;
#26 = CYLINDRICAL_SURFACE ( 'NONE', #103, 3.100000000000000089 ) ;
#27 = AXIS2_PLACEMENT_3D ( 'NONE', #217, #147, #281 ) ;
#28 = CIRCLE ( 'NONE', #170, 3.100000000000000089 ) ;
#29 = PERSON_AND_ORGANIZATION ( #149, #123 ) ;
#30 = FACE_OUTER_BOUND ( 'NONE', #62, .T. ) ;
#31 = AXIS2_PLACEMENT_3D ( 'NONE', #292, #156, #264 ) ;
#32 = ORIENTED_EDGE ( 'NONE', *, *, #80, .T. ) ;
#33 = DATE_AND_TIME ( #206, #162 ) ;
#34 = LINE ( 'NONE', #160, #212 ) ;
#35 = ORIENTED_EDGE ( 'NONE', *, *, #49, .T. ) ;
#36 = PERSON_AND_ORGANIZATION ( #149, #123 ) ;
#37 =( NAMED_UNIT ( * ) SI_UNIT ( $, .STERADIAN. ) SOLID_ANGLE_UNIT ( ) );
#38 = APPROVAL_DATE_TIME ( #175, #240 ) ;
#39 = LINE ( 'NONE', #133, #221 ) ;
#40 = AXIS2_PLACEMENT_3D ( 'NONE', #95, #144, #235 ) ;
#41 = EDGE_CURVE ( 'NONE', #45, #299, #23, .T. ) ;
#42 = ADVANCED_FACE ( 'NONE', ( #190 ), #301, .T. ) ;
#43 = VERTEX_POINT ( 'NONE', #169 ) ;
#44 = AXIS2_PLACEMENT_3D ( 'NONE', #73, #213, #122 ) ;
#45 = VERTEX_POINT ( 'NONE', #47 ) ;
#46 = CARTESIAN_POINT ( 'NONE',  ( 3.100000000000000089, 3.796405077356794918E-16, 5.200000000000009948 ) ) ;
#47 = CARTESIAN_POINT ( 'NONE',  ( -3.299999999999999822, 4.041334437186265510E-16, 5.000000000000005329 ) ) ;
#48 = VECTOR ( 'NONE', #196, 1000.000000000000000 ) ;
#49 = EDGE_CURVE ( 'NONE', #233, #254, #182, .T. ) ;
#50 = DIRECTION ( 'NONE',  ( 0.000000000000000000, 0.000000000000000000, 1.000000000000000000 ) ) ;
#51 = LOCAL_TIME ( 14, 40, 21.00000000000000000, #228 ) ;
#52 = CARTESIAN_POINT ( 'NONE',  ( -3.100000000000000089, 0.000000000000000000, 5.200000000000009948 ) ) ;
#53 = APPROVAL ( #272, 'NEURÈENÝ' ) ;
#54 = FACE_OUTER_BOUND ( 'NONE', #166, .T. ) ;
#55 = CIRCLE ( 'NONE', #71, 6.000000000000000888 ) ;
#56 = AXIS2_PLACEMENT_3D ( 'NONE', #201, #246, #130 ) ;
#57 = SECURITY_CLASSIFICATION ( '', '', #267 ) ;
#58 = CC_DESIGN_DATE_AND_TIME_ASSIGNMENT ( #33, #225, ( #57 ) ) ;
#59 = ORIENTED_EDGE ( 'NONE', *, *, #159, .T. ) ;
#60 = APPLICATION_PROTOCOL_DEFINITION ( 'international standard', 'config_control_design', 1994, #303 ) ;
#61 = CARTESIAN_POINT ( 'NONE',  ( 3.100000000000000089, 3.796405077356794918E-16, 205.0000000000000284 ) ) ;
#62 = EDGE_LOOP ( 'NONE', ( #18, #210, #164, #232 ) ) ;
#63 = PERSON_AND_ORGANIZATION_ROLE ( 'classification_officer' ) ;
#64 = VERTEX_POINT ( 'NONE', #46 ) ;
#65 = DATE_AND_TIME ( #86, #195 ) ;
#66 = CARTESIAN_POINT ( 'NONE',  ( 0.000000000000000000, 0.000000000000000000, 5.200000000000009948 ) ) ;
#67 = DIRECTION ( 'NONE',  ( 0.000000000000000000, 0.000000000000000000, 1.000000000000000000 ) ) ;
#68 = APPROVAL_PERSON_ORGANIZATION ( #137, #53, #108 ) ;
#69 = ORIENTED_EDGE ( 'NONE', *, *, #16, .T. ) ;
#70 = EDGE_LOOP ( 'NONE', ( #69, #188 ) ) ;
#71 = AXIS2_PLACEMENT_3D ( 'NONE', #25, #50, #100 ) ;
#72 = AXIS2_PLACEMENT_3D ( 'NONE', #13, #67, #226 ) ;
#73 = CARTESIAN_POINT ( 'NONE',  ( 0.000000000000000000, 0.000000000000000000, 5.200000000000009948 ) ) ;
#74 = CARTESIAN_POINT ( 'NONE',  ( 0.000000000000000000, 0.000000000000000000, 5.000000000000000000 ) ) ;
#75 = EDGE_CURVE ( 'NONE', #276, #266, #155, .T. ) ;
#76 = DIRECTION ( 'NONE',  ( 1.000000000000000000, 0.000000000000000000, 0.000000000000000000 ) ) ;
#77 = ADVANCED_BREP_SHAPE_REPRESENTATION ( '3c3c', ( #126, #253 ), #96 ) ;
#78 = ADVANCED_FACE ( 'NONE', ( #120 ), #194, .F. ) ;
#79 = CARTESIAN_POINT ( 'NONE',  ( -6.000000000000000888, 0.000000000000000000, 0.000000000000000000 ) ) ;
#80 = EDGE_CURVE ( 'NONE', #85, #64, #261, .T. ) ;
#81 = DIRECTION ( 'NONE',  ( 1.000000000000000000, 0.000000000000000000, 0.000000000000000000 ) ) ;
#82 = DIRECTION ( 'NONE',  ( 0.000000000000000000, 0.000000000000000000, 1.000000000000000000 ) ) ;
#83 = PERSON_AND_ORGANIZATION ( #149, #123 ) ;
#84 = DIRECTION ( 'NONE',  ( -0.000000000000000000, -0.000000000000000000, -1.000000000000000000 ) ) ;
#85 = VERTEX_POINT ( 'NONE', #52 ) ;
#86 = CALENDAR_DATE ( 2022, 7, 7 ) ;
#87 = DIRECTION ( 'NONE',  ( 0.000000000000000000, 0.000000000000000000, 1.000000000000000000 ) ) ;
#88 = VERTEX_POINT ( 'NONE', #79 ) ;
#89 = PERSON_AND_ORGANIZATION_ROLE ( 'creator' ) ;
#90 = DIRECTION ( 'NONE',  ( 0.000000000000000000, -1.000000000000000000, 0.000000000000000000 ) ) ;
#91 = CIRCLE ( 'NONE', #187, 0.1999999999999996503 ) ;
#92 = ORIENTED_EDGE ( 'NONE', *, *, #80, .F. ) ;
#93 = ORIENTED_EDGE ( 'NONE', *, *, #291, .T. ) ;
#94 = EDGE_CURVE ( 'NONE', #43, #88, #237, .T. ) ;
#95 = CARTESIAN_POINT ( 'NONE',  ( 0.000000000000000000, 0.000000000000000000, 5.000000000000000000 ) ) ;
#96 =( GEOMETRIC_REPRESENTATION_CONTEXT ( 3 ) GLOBAL_UNCERTAINTY_ASSIGNED_CONTEXT ( ( #114 ) ) GLOBAL_UNIT_ASSIGNED_CONTEXT ( ( #106, #3, #37 ) ) REPRESENTATION_CONTEXT ( 'NONE', 'WORKASPACE' ) );
#97 = DIRECTION ( 'NONE',  ( 1.000000000000000000, 0.000000000000000000, -0.000000000000000000 ) ) ;
#98 = EDGE_CURVE ( 'NONE', #88, #43, #55, .T. ) ;
#99 = DIRECTION ( 'NONE',  ( 0.000000000000000000, 0.000000000000000000, 1.000000000000000000 ) ) ;
#100 = DIRECTION ( 'NONE',  ( 1.000000000000000000, 0.000000000000000000, 0.000000000000000000 ) ) ;
#101 = CIRCLE ( 'NONE', #72, 6.000000000000000888 ) ;
#102 = PERSON_AND_ORGANIZATION ( #149, #123 ) ;
#103 = AXIS2_PLACEMENT_3D ( 'NONE', #172, #125, #282 ) ;
#104 = ADVANCED_FACE ( 'NONE', ( #238, #307 ), #305, .T. ) ;
#105 = DATE_AND_TIME ( #4, #200 ) ;
#106 =( LENGTH_UNIT ( ) NAMED_UNIT ( * ) SI_UNIT ( .MILLI., .METRE. ) );
#107 = CARTESIAN_POINT ( 'NONE',  ( 0.000000000000000000, 0.000000000000000000, 0.000000000000000000 ) ) ;
#108 = APPROVAL_ROLE ( '' ) ;
#109 = DIRECTION ( 'NONE',  ( 0.000000000000000000, 0.000000000000000000, 1.000000000000000000 ) ) ;
#110 = APPROVAL ( #242, 'NEURÈENÝ' ) ;
#111 = ORIENTED_EDGE ( 'NONE', *, *, #98, .F. ) ;
#112 = APPROVAL_DATE_TIME ( #105, #110 ) ;
#113 = LINE ( 'NONE', #6, #24 ) ;
#114 = UNCERTAINTY_MEASURE_WITH_UNIT (LENGTH_MEASURE( 1.000000000000000082E-05 ), #106, 'distance_accuracy_value', 'NONE');
#115 = CC_DESIGN_PERSON_AND_ORGANIZATION_ASSIGNMENT ( #29, #181, ( #304 ) ) ;
#116 = ORIENTED_EDGE ( 'NONE', *, *, #94, .F. ) ;
#117 = CC_DESIGN_SECURITY_CLASSIFICATION ( #57, ( #279 ) ) ;
#118 = EDGE_LOOP ( 'NONE', ( #111, #116 ) ) ;
#119 = EDGE_LOOP ( 'NONE', ( #139, #11, #135, #227 ) ) ;
#120 = FACE_OUTER_BOUND ( 'NONE', #184, .T. ) ;
#121 = EDGE_CURVE ( 'NONE', #266, #276, #218, .T. ) ;
#122 = DIRECTION ( 'NONE',  ( 1.000000000000000000, 0.000000000000000000, 0.000000000000000000 ) ) ;
#123 = ORGANIZATION ( 'NEURÈENÝ', 'NEURÈENÝ', '' ) ;
#124 = CARTESIAN_POINT ( 'NONE',  ( 0.000000000000000000, 0.000000000000000000, 5.000000000000000000 ) ) ;
#125 = DIRECTION ( 'NONE',  ( -0.000000000000000000, -0.000000000000000000, -1.000000000000000000 ) ) ;
#126 = MANIFOLD_SOLID_BREP ( 'Zaoblit1', #306 ) ;
#127 = CALENDAR_DATE ( 2022, 7, 7 ) ;
#128 = EDGE_CURVE ( 'NONE', #233, #43, #259, .T. ) ;
#129 = APPLICATION_PROTOCOL_DEFINITION ( 'international standard', 'config_control_design', 1994, #234 ) ;
#130 = DIRECTION ( 'NONE',  ( -1.000000000000000000, 1.224646799147353207E-16, 0.000000000000000000 ) ) ;
#131 = EDGE_LOOP ( 'NONE', ( #270, #141, #59, #205 ) ) ;
#132 = PERSON_AND_ORGANIZATION ( #149, #123 ) ;
#133 = CARTESIAN_POINT ( 'NONE',  ( -6.000000000000000888, 0.000000000000000000, 5.000000000000000000 ) ) ;
#134 = ADVANCED_FACE ( 'NONE', ( #54 ), #26, .T. ) ;
#135 = ORIENTED_EDGE ( 'NONE', *, *, #94, .T. ) ;
#136 = APPROVAL_ROLE ( '' ) ;
#137 = PERSON_AND_ORGANIZATION ( #149, #123 ) ;
#138 = ADVANCED_FACE ( 'NONE', ( #296 ), #230, .T. ) ;
#139 = ORIENTED_EDGE ( 'NONE', *, *, #49, .F. ) ;
#140 = AXIS2_PLACEMENT_3D ( 'NONE', #142, #21, #236 ) ;
#141 = ORIENTED_EDGE ( 'NONE', *, *, #250, .F. ) ;
#142 = CARTESIAN_POINT ( 'NONE',  ( 0.000000000000000000, 0.000000000000000000, 205.0000000000000284 ) ) ;
#143 = DIRECTION ( 'NONE',  ( 1.000000000000000000, 0.000000000000000000, 0.000000000000000000 ) ) ;
#144 = DIRECTION ( 'NONE',  ( 0.000000000000000000, 0.000000000000000000, 1.000000000000000000 ) ) ;
#145 = AXIS2_PLACEMENT_3D ( 'NONE', #285, #109, #204 ) ;
#146 = LOCAL_TIME ( 14, 40, 21.00000000000000000, #151 ) ;
#147 = DIRECTION ( 'NONE',  ( 0.000000000000000000, 0.000000000000000000, 1.000000000000000000 ) ) ;
#148 = DIRECTION ( 'NONE',  ( 0.000000000000000000, 0.000000000000000000, 1.000000000000000000 ) ) ;
#149 = PERSON ( 'NEURÈENÝ', 'NEURÈENÝ', 'NEURÈENÝ', ('NEURÈENÝ'), ('NEURÈENÝ'), ('NEURÈENÝ') ) ;
#150 = CARTESIAN_POINT ( 'NONE',  ( 0.000000000000000000, 0.000000000000000000, 0.000000000000000000 ) ) ;
#151 = COORDINATED_UNIVERSAL_TIME_OFFSET ( 1, 0, .AHEAD. ) ;
#152 = CARTESIAN_POINT ( 'NONE',  ( 3.299999999999999822, 0.000000000000000000, 5.000000000000005329 ) ) ;
#153 = EDGE_CURVE ( 'NONE', #266, #85, #34, .T. ) ;
#154 = EDGE_LOOP ( 'NONE', ( #298, #180 ) ) ;
#155 = CIRCLE ( 'NONE', #140, 3.100000000000000089 ) ;
#156 = DIRECTION ( 'NONE',  ( -0.000000000000000000, -0.000000000000000000, -1.000000000000000000 ) ) ;
#157 = ORIENTED_EDGE ( 'NONE', *, *, #16, .F. ) ;
#158 = CALENDAR_DATE ( 2022, 7, 7 ) ;
#159 = EDGE_CURVE ( 'NONE', #64, #299, #91, .T. ) ;
#160 = CARTESIAN_POINT ( 'NONE',  ( -3.100000000000000089, 0.000000000000000000, 205.0000000000000284 ) ) ;
#161 = AXIS2_PLACEMENT_3D ( 'NONE', #215, #148, #260 ) ;
#162 = LOCAL_TIME ( 14, 40, 21.00000000000000000, #245 ) ;
#163 = EDGE_CURVE ( 'NONE', #254, #88, #39, .T. ) ;
#164 = ORIENTED_EDGE ( 'NONE', *, *, #163, .T. ) ;
#165 = ADVANCED_FACE ( 'NONE', ( #30 ), #176, .T. ) ;
#166 = EDGE_LOOP ( 'NONE', ( #294, #262, #189, #32 ) ) ;
#167 = AXIS2_PLACEMENT_3D ( 'NONE', #256, #192, #280 ) ;
#168 = DIRECTION ( 'NONE',  ( -0.000000000000000000, -0.000000000000000000, -1.000000000000000000 ) ) ;
#169 = CARTESIAN_POINT ( 'NONE',  ( 6.000000000000000888, 7.347880794884120722E-16, 0.000000000000000000 ) ) ;
#170 = AXIS2_PLACEMENT_3D ( 'NONE', #66, #82, #251 ) ;
#171 = DIRECTION ( 'NONE',  ( 1.000000000000000000, 0.000000000000000000, -0.000000000000000000 ) ) ;
#172 = CARTESIAN_POINT ( 'NONE',  ( 0.000000000000000000, 0.000000000000000000, 205.0000000000000284 ) ) ;
#173 = AXIS2_PLACEMENT_3D ( 'NONE', #278, #99, #76 ) ;
#174 = PRODUCT ( '3c3c', '3c3c', '', ( #241 ) ) ;
#175 = DATE_AND_TIME ( #158, #146 ) ;
#176 = CYLINDRICAL_SURFACE ( 'NONE', #31, 6.000000000000000888 ) ;
#177 = EDGE_LOOP ( 'NONE', ( #255, #211, #289, #20 ) ) ;
#178 = APPROVAL_STATUS ( 'not_yet_approved' ) ;
#179 = CYLINDRICAL_SURFACE ( 'NONE', #199, 3.100000000000000089 ) ;
#180 = ORIENTED_EDGE ( 'NONE', *, *, #75, .T. ) ;
#181 = PERSON_AND_ORGANIZATION_ROLE ( 'creator' ) ;
#182 = CIRCLE ( 'NONE', #40, 6.000000000000000888 ) ;
#183 = CARTESIAN_POINT ( 'NONE',  ( -3.100000000000000089, 0.000000000000000000, 205.0000000000000284 ) ) ;
#184 = EDGE_LOOP ( 'NONE', ( #92, #93, #157, #224 ) ) ;
#185 = SHAPE_DEFINITION_REPRESENTATION ( #265, #77 ) ;
#186 = CARTESIAN_POINT ( 'NONE',  ( 0.000000000000000000, 0.000000000000000000, 205.0000000000000284 ) ) ;
#187 = AXIS2_PLACEMENT_3D ( 'NONE', #223, #90, #288 ) ;
#188 = ORIENTED_EDGE ( 'NONE', *, *, #41, .T. ) ;
#189 = ORIENTED_EDGE ( 'NONE', *, *, #153, .T. ) ;
#190 = FACE_OUTER_BOUND ( 'NONE', #119, .T. ) ;
#191 = CIRCLE ( 'NONE', #56, 0.2000000000000000944 ) ;
#192 = DIRECTION ( 'NONE',  ( -0.000000000000000000, -0.000000000000000000, -1.000000000000000000 ) ) ;
#193 = DIRECTION ( 'NONE',  ( 0.000000000000000000, 0.000000000000000000, 1.000000000000000000 ) ) ;
#194 = TOROIDAL_SURFACE ( 'NONE', #44, 3.299999999999999822, 0.2000000000000000111 ) ;
#195 = LOCAL_TIME ( 14, 40, 21.00000000000000000, #290 ) ;
#196 = DIRECTION ( 'NONE',  ( -0.000000000000000000, -0.000000000000000000, -1.000000000000000000 ) ) ;
#197 = CC_DESIGN_DATE_AND_TIME_ASSIGNMENT ( #263, #219, ( #304 ) ) ;
#198 = FACE_OUTER_BOUND ( 'NONE', #131, .T. ) ;
#199 = AXIS2_PLACEMENT_3D ( 'NONE', #186, #10, #271 ) ;
#200 = LOCAL_TIME ( 14, 40, 21.00000000000000000, #249 ) ;
#201 = CARTESIAN_POINT ( 'NONE',  ( -3.299999999999999822, 4.041334437186265510E-16, 5.200000000000009948 ) ) ;
#202 = DIRECTION ( 'NONE',  ( 0.000000000000000000, 0.000000000000000000, 1.000000000000000000 ) ) ;
#203 = PERSON_AND_ORGANIZATION_ROLE ( 'design_owner' ) ;
#204 = DIRECTION ( 'NONE',  ( 1.000000000000000000, 0.000000000000000000, -0.000000000000000000 ) ) ;
#205 = ORIENTED_EDGE ( 'NONE', *, *, #41, .F. ) ;
#206 = CALENDAR_DATE ( 2022, 7, 7 ) ;
#207 = AXIS2_PLACEMENT_3D ( 'NONE', #22, #257, #143 ) ;
#208 = DIRECTION ( 'NONE',  ( -0.000000000000000000, -0.000000000000000000, -1.000000000000000000 ) ) ;
#209 = AXIS2_PLACEMENT_3D ( 'NONE', #243, #87, #268 ) ;
#210 = ORIENTED_EDGE ( 'NONE', *, *, #247, .F. ) ;
#211 = ORIENTED_EDGE ( 'NONE', *, *, #269, .T. ) ;
#212 = VECTOR ( 'NONE', #229, 1000.000000000000000 ) ;
#213 = DIRECTION ( 'NONE',  ( 0.000000000000000000, 0.000000000000000000, 1.000000000000000000 ) ) ;
#214 = ADVANCED_FACE ( 'NONE', ( #198 ), #222, .F. ) ;
#215 = CARTESIAN_POINT ( 'NONE',  ( 0.000000000000000000, 0.000000000000000000, 205.0000000000000284 ) ) ;
#216 = CC_DESIGN_PERSON_AND_ORGANIZATION_ASSIGNMENT ( #83, #9, ( #279 ) ) ;
#217 = CARTESIAN_POINT ( 'NONE',  ( 0.000000000000000000, 0.000000000000000000, 0.000000000000000000 ) ) ;
#218 = CIRCLE ( 'NONE', #161, 3.100000000000000089 ) ;
#219 = DATE_TIME_ROLE ( 'creation_date' ) ;
#220 = CARTESIAN_POINT ( 'NONE',  ( 6.000000000000000888, 7.347880794884120722E-16, 5.000000000000000000 ) ) ;
#221 = VECTOR ( 'NONE', #84, 1000.000000000000000 ) ;
#222 = TOROIDAL_SURFACE ( 'NONE', #209, 3.299999999999999822, 0.2000000000000000111 ) ;
#223 = CARTESIAN_POINT ( 'NONE',  ( 3.299999999999999822, 0.000000000000000000, 5.200000000000009948 ) ) ;
#224 = ORIENTED_EDGE ( 'NONE', *, *, #159, .F. ) ;
#225 = DATE_TIME_ROLE ( 'classification_date' ) ;
#226 = DIRECTION ( 'NONE',  ( 1.000000000000000000, 0.000000000000000000, 0.000000000000000000 ) ) ;
#227 = ORIENTED_EDGE ( 'NONE', *, *, #163, .F. ) ;
#228 = COORDINATED_UNIVERSAL_TIME_OFFSET ( 1, 0, .AHEAD. ) ;
#229 = DIRECTION ( 'NONE',  ( -0.000000000000000000, -0.000000000000000000, -1.000000000000000000 ) ) ;
#230 = PLANE ( 'NONE',  #145 ) ;
#231 = CC_DESIGN_PERSON_AND_ORGANIZATION_ASSIGNMENT ( #287, #89, ( #279 ) ) ;
#232 = ORIENTED_EDGE ( 'NONE', *, *, #98, .T. ) ;
#233 = VERTEX_POINT ( 'NONE', #220 ) ;
#234 = APPLICATION_CONTEXT ( 'configuration controlled 3d designs of mechanical parts and assemblies' ) ;
#235 = DIRECTION ( 'NONE',  ( 1.000000000000000000, 0.000000000000000000, 0.000000000000000000 ) ) ;
#236 = DIRECTION ( 'NONE',  ( 1.000000000000000000, 0.000000000000000000, 0.000000000000000000 ) ) ;
#237 = CIRCLE ( 'NONE', #27, 6.000000000000000888 ) ;
#238 = FACE_BOUND ( 'NONE', #70, .T. ) ;
#239 = CARTESIAN_POINT ( 'NONE',  ( 6.000000000000000888, 7.347880794884120722E-16, 5.000000000000000000 ) ) ;
#240 = APPROVAL ( #178, 'NEURÈENÝ' ) ;
#241 = MECHANICAL_CONTEXT ( 'NONE', #234, 'mechanical' ) ;
#242 = APPROVAL_STATUS ( 'not_yet_approved' ) ;
#243 = CARTESIAN_POINT ( 'NONE',  ( 0.000000000000000000, 0.000000000000000000, 5.200000000000009948 ) ) ;
#244 = FACE_OUTER_BOUND ( 'NONE', #118, .T. ) ;
#245 = COORDINATED_UNIVERSAL_TIME_OFFSET ( 1, 0, .AHEAD. ) ;
#246 = DIRECTION ( 'NONE',  ( 1.224646799147353207E-16, 1.000000000000000000, -0.000000000000000000 ) ) ;
#247 = EDGE_CURVE ( 'NONE', #254, #233, #101, .T. ) ;
#248 = ORIENTED_EDGE ( 'NONE', *, *, #247, .T. ) ;
#249 = COORDINATED_UNIVERSAL_TIME_OFFSET ( 1, 0, .AHEAD. ) ;
#250 = EDGE_CURVE ( 'NONE', #64, #85, #28, .T. ) ;
#251 = DIRECTION ( 'NONE',  ( 1.000000000000000000, 0.000000000000000000, 0.000000000000000000 ) ) ;
#252 = AXIS2_PLACEMENT_3D ( 'NONE', #107, #202, #97 ) ;
#253 = AXIS2_PLACEMENT_3D ( 'NONE', #150, #2, #81 ) ;
#254 = VERTEX_POINT ( 'NONE', #273 ) ;
#255 = ORIENTED_EDGE ( 'NONE', *, *, #75, .F. ) ;
#256 = CARTESIAN_POINT ( 'NONE',  ( 0.000000000000000000, 0.000000000000000000, 5.000000000000000000 ) ) ;
#257 = DIRECTION ( 'NONE',  ( -0.000000000000000000, -0.000000000000000000, -1.000000000000000000 ) ) ;
#258 = CC_DESIGN_PERSON_AND_ORGANIZATION_ASSIGNMENT ( #36, #63, ( #57 ) ) ;
#259 = LINE ( 'NONE', #239, #48 ) ;
#260 = DIRECTION ( 'NONE',  ( 1.000000000000000000, 0.000000000000000000, 0.000000000000000000 ) ) ;
#261 = CIRCLE ( 'NONE', #173, 3.100000000000000089 ) ;
#262 = ORIENTED_EDGE ( 'NONE', *, *, #121, .F. ) ;
#263 = DATE_AND_TIME ( #127, #51 ) ;
#264 = DIRECTION ( 'NONE',  ( -1.000000000000000000, 0.000000000000000000, 0.000000000000000000 ) ) ;
#265 = PRODUCT_DEFINITION_SHAPE ( 'NONE', 'NONE',  #304 ) ;
#266 = VERTEX_POINT ( 'NONE', #183 ) ;
#267 = SECURITY_CLASSIFICATION_LEVEL ( 'unclassified' ) ;
#268 = DIRECTION ( 'NONE',  ( 1.000000000000000000, 0.000000000000000000, 0.000000000000000000 ) ) ;
#269 = EDGE_CURVE ( 'NONE', #276, #64, #113, .T. ) ;
#270 = ORIENTED_EDGE ( 'NONE', *, *, #291, .F. ) ;
#271 = DIRECTION ( 'NONE',  ( -1.000000000000000000, 0.000000000000000000, 0.000000000000000000 ) ) ;
#272 = APPROVAL_STATUS ( 'not_yet_approved' ) ;
#273 = CARTESIAN_POINT ( 'NONE',  ( -6.000000000000000888, 0.000000000000000000, 5.000000000000000000 ) ) ;
#274 = APPROVAL_PERSON_ORGANIZATION ( #284, #240, #136 ) ;
#275 = DESIGN_CONTEXT ( 'detailed design', #303, 'design' ) ;
#276 = VERTEX_POINT ( 'NONE', #61 ) ;
#277 = EDGE_LOOP ( 'NONE', ( #248, #35 ) ) ;
#278 = CARTESIAN_POINT ( 'NONE',  ( 0.000000000000000000, 0.000000000000000000, 5.200000000000009948 ) ) ;
#279 = PRODUCT_DEFINITION_FORMATION_WITH_SPECIFIED_SOURCE ( 'LIBOVOLNÝ', '', #174, .NOT_KNOWN. ) ;
#280 = DIRECTION ( 'NONE',  ( 1.000000000000000000, 0.000000000000000000, 0.000000000000000000 ) ) ;
#281 = DIRECTION ( 'NONE',  ( 1.000000000000000000, 0.000000000000000000, 0.000000000000000000 ) ) ;
#282 = DIRECTION ( 'NONE',  ( -1.000000000000000000, 0.000000000000000000, 0.000000000000000000 ) ) ;
#283 = AXIS2_PLACEMENT_3D ( 'NONE', #74, #168, #302 ) ;
#284 = PERSON_AND_ORGANIZATION ( #149, #123 ) ;
#285 = CARTESIAN_POINT ( 'NONE',  ( 0.000000000000000000, 0.000000000000000000, 205.0000000000000284 ) ) ;
#286 = ADVANCED_FACE ( 'NONE', ( #14 ), #179, .T. ) ;
#287 = PERSON_AND_ORGANIZATION ( #149, #123 ) ;
#288 = DIRECTION ( 'NONE',  ( 0.000000000000000000, 0.000000000000000000, -1.000000000000000000 ) ) ;
#289 = ORIENTED_EDGE ( 'NONE', *, *, #250, .T. ) ;
#290 = COORDINATED_UNIVERSAL_TIME_OFFSET ( 1, 0, .AHEAD. ) ;
#291 = EDGE_CURVE ( 'NONE', #85, #45, #191, .T. ) ;
#292 = CARTESIAN_POINT ( 'NONE',  ( 0.000000000000000000, 0.000000000000000000, 5.000000000000000000 ) ) ;
#293 = CIRCLE ( 'NONE', #207, 3.299999999999999822 ) ;
#294 = ORIENTED_EDGE ( 'NONE', *, *, #269, .F. ) ;
#295 = APPROVAL_DATE_TIME ( #65, #53 ) ;
#296 = FACE_OUTER_BOUND ( 'NONE', #154, .T. ) ;
#297 = CC_DESIGN_APPROVAL ( #53, ( #57 ) ) ;
#298 = ORIENTED_EDGE ( 'NONE', *, *, #121, .T. ) ;
#299 = VERTEX_POINT ( 'NONE', #152 ) ;
#300 = PRODUCT_RELATED_PRODUCT_CATEGORY ( 'detail', '', ( #174 ) ) ;
#301 = CYLINDRICAL_SURFACE ( 'NONE', #283, 6.000000000000000888 ) ;
#302 = DIRECTION ( 'NONE',  ( -1.000000000000000000, 0.000000000000000000, 0.000000000000000000 ) ) ;
#303 = APPLICATION_CONTEXT ( 'configuration controlled 3d designs of mechanical parts and assemblies' ) ;
#304 = PRODUCT_DEFINITION ( 'NEZNÁMÝ', '', #279, #275 ) ;
#305 = PLANE ( 'NONE',  #17 ) ;
#306 = CLOSED_SHELL ( 'NONE', ( #78, #286, #42, #165, #104, #1, #134, #138, #214 ) ) ;
#307 = FACE_OUTER_BOUND ( 'NONE', #277, .T. ) ;
ENDSEC;
END-ISO-10303-21;
