ISO-10303-21;
HEADER;
FILE_DESCRIPTION (( 'STEP AP203' ),
    '1' );
FILE_NAME ('983a.STEP',
    '2022-07-07T12:32:11',
    ( '' ),
    ( '' ),
    'SwSTEP 2.0',
    'SolidWorks 2019',
    '' );
FILE_SCHEMA (( 'CONFIG_CONTROL_DESIGN' ));
ENDSEC;

DATA;
#1 = DIRECTION ( 'NONE',  ( -0.000000000000000000, -0.000000000000000000, -1.000000000000000000 ) ) ;
#2 = CC_DESIGN_APPROVAL ( #179, ( #38 ) ) ;
#3 = FACE_BOUND ( 'NONE', #86, .T. ) ;
#4 = CIRCLE ( 'NONE', #266, 4.099999999999999645 ) ;
#5 = CARTESIAN_POINT ( 'NONE',  ( 0.000000000000000000, 0.000000000000000000, 0.000000000000000000 ) ) ;
#6 = CARTESIAN_POINT ( 'NONE',  ( 4.099999999999999645, 5.021051876504147385E-16, 5.199999999999982414 ) ) ;
#7 = CARTESIAN_POINT ( 'NONE',  ( 0.000000000000000000, 0.000000000000000000, 5.199999999999982414 ) ) ;
#8 = ORIENTED_EDGE ( 'NONE', *, *, #13, .T. ) ;
#9 = EDGE_LOOP ( 'NONE', ( #175, #55, #305, #82 ) ) ;
#10 = ORIENTED_EDGE ( 'NONE', *, *, #292, .T. ) ;
#11 = LOCAL_TIME ( 14, 32, 11.00000000000000000, #228 ) ;
#12 = CALENDAR_DATE ( 2022, 7, 7 ) ;
#13 = EDGE_CURVE ( 'NONE', #201, #151, #4, .T. ) ;
#14 = APPROVAL_DATE_TIME ( #222, #56 ) ;
#15 = PLANE ( 'NONE',  #65 ) ;
#16 = PERSON_AND_ORGANIZATION ( #87, #44 ) ;
#17 = CARTESIAN_POINT ( 'NONE',  ( 7.000000000000000000, 8.572527594031473190E-16, 0.000000000000000000 ) ) ;
#18 = EDGE_CURVE ( 'NONE', #151, #201, #282, .T. ) ;
#19 = APPROVAL_PERSON_ORGANIZATION ( #134, #208, #252 ) ;
#20 = PERSON_AND_ORGANIZATION_ROLE ( 'creator' ) ;
#21 = CYLINDRICAL_SURFACE ( 'NONE', #236, 7.000000000000000000 ) ;
#22 = COORDINATED_UNIVERSAL_TIME_OFFSET ( 1, 0, .AHEAD. ) ;
#23 = PRODUCT ( '983a', '983a', '', ( #122 ) ) ;
#24 = AXIS2_PLACEMENT_3D ( 'NONE', #229, #25, #113 ) ;
#25 = DIRECTION ( 'NONE',  ( 0.000000000000000000, 0.000000000000000000, 1.000000000000000000 ) ) ;
#26 = SHAPE_DEFINITION_REPRESENTATION ( #277, #148 ) ;
#27 = COORDINATED_UNIVERSAL_TIME_OFFSET ( 1, 0, .AHEAD. ) ;
#28 = ORIENTED_EDGE ( 'NONE', *, *, #37, .F. ) ;
#29 = PLANE ( 'NONE',  #164 ) ;
#30 = DIRECTION ( 'NONE',  ( 1.000000000000000000, 0.000000000000000000, -0.000000000000000000 ) ) ;
#31 = AXIS2_PLACEMENT_3D ( 'NONE', #251, #135, #149 ) ;
#32 = PLANE ( 'NONE',  #158 ) ;
#33 = ADVANCED_FACE ( 'NONE', ( #269 ), #60, .T. ) ;
#34 = DIRECTION ( 'NONE',  ( -1.000000000000000000, 0.000000000000000000, 0.000000000000000000 ) ) ;
#35 = UNCERTAINTY_MEASURE_WITH_UNIT (LENGTH_MEASURE( 1.000000000000000082E-05 ), #140, 'distance_accuracy_value', 'NONE');
#36 = CIRCLE ( 'NONE', #195, 7.000000000000000000 ) ;
#37 = EDGE_CURVE ( 'NONE', #121, #100, #213, .T. ) ;
#38 = PRODUCT_DEFINITION_FORMATION_WITH_SPECIFIED_SOURCE ( 'LIBOVOLNÝ', '', #23, .NOT_KNOWN. ) ;
#39 = DIRECTION ( 'NONE',  ( 0.000000000000000000, 0.000000000000000000, 1.000000000000000000 ) ) ;
#40 = PERSON_AND_ORGANIZATION ( #87, #44 ) ;
#41 = VERTEX_POINT ( 'NONE', #17 ) ;
#42 = CALENDAR_DATE ( 2022, 7, 7 ) ;
#43 = ORIENTED_EDGE ( 'NONE', *, *, #264, .F. ) ;
#44 = ORGANIZATION ( 'NEURÈENÝ', 'NEURÈENÝ', '' ) ;
#45 = DIRECTION ( 'NONE',  ( -0.000000000000000000, -0.000000000000000000, -1.000000000000000000 ) ) ;
#46 = APPROVAL_STATUS ( 'not_yet_approved' ) ;
#47 = DIRECTION ( 'NONE',  ( 0.000000000000000000, 0.000000000000000000, -1.000000000000000000 ) ) ;
#48 = CC_DESIGN_PERSON_AND_ORGANIZATION_ASSIGNMENT ( #83, #20, ( #112 ) ) ;
#49 = LINE ( 'NONE', #141, #73 ) ;
#50 = DIRECTION ( 'NONE',  ( 0.000000000000000000, 0.000000000000000000, 1.000000000000000000 ) ) ;
#51 = DIRECTION ( 'NONE',  ( 0.000000000000000000, 0.000000000000000000, 1.000000000000000000 ) ) ;
#52 = DIRECTION ( 'NONE',  ( 0.000000000000000000, 0.000000000000000000, 1.000000000000000000 ) ) ;
#53 = DIRECTION ( 'NONE',  ( 1.224646799147353207E-16, 1.000000000000000000, -0.000000000000000000 ) ) ;
#54 = ORIENTED_EDGE ( 'NONE', *, *, #264, .T. ) ;
#55 = ORIENTED_EDGE ( 'NONE', *, *, #172, .T. ) ;
#56 = APPROVAL ( #69, 'NEURÈENÝ' ) ;
#57 = ORIENTED_EDGE ( 'NONE', *, *, #13, .F. ) ;
#58 = PRODUCT_RELATED_PRODUCT_CATEGORY ( 'detail', '', ( #23 ) ) ;
#59 = APPROVAL_ROLE ( '' ) ;
#60 = CYLINDRICAL_SURFACE ( 'NONE', #150, 4.099999999999999645 ) ;
#61 = AXIS2_PLACEMENT_3D ( 'NONE', #235, #53, #161 ) ;
#62 =( GEOMETRIC_REPRESENTATION_CONTEXT ( 3 ) GLOBAL_UNCERTAINTY_ASSIGNED_CONTEXT ( ( #35 ) ) GLOBAL_UNIT_ASSIGNED_CONTEXT ( ( #140, #241, #98 ) ) REPRESENTATION_CONTEXT ( 'NONE', 'WORKASPACE' ) );
#63 = DIRECTION ( 'NONE',  ( 1.000000000000000000, 0.000000000000000000, 0.000000000000000000 ) ) ;
#64 = ORIENTED_EDGE ( 'NONE', *, *, #172, .F. ) ;
#65 = AXIS2_PLACEMENT_3D ( 'NONE', #168, #39, #196 ) ;
#66 = FACE_OUTER_BOUND ( 'NONE', #263, .T. ) ;
#67 = DATE_TIME_ROLE ( 'creation_date' ) ;
#68 = ORIENTED_EDGE ( 'NONE', *, *, #224, .F. ) ;
#69 = APPROVAL_STATUS ( 'not_yet_approved' ) ;
#70 = ORIENTED_EDGE ( 'NONE', *, *, #166, .T. ) ;
#71 = EDGE_CURVE ( 'NONE', #121, #90, #85, .T. ) ;
#72 = CARTESIAN_POINT ( 'NONE',  ( 0.000000000000000000, 0.000000000000000000, 5.000000000000000000 ) ) ;
#73 = VECTOR ( 'NONE', #287, 1000.000000000000000 ) ;
#74 = LOCAL_TIME ( 14, 32, 11.00000000000000000, #297 ) ;
#75 = ADVANCED_FACE ( 'NONE', ( #273 ), #21, .T. ) ;
#76 = CARTESIAN_POINT ( 'NONE',  ( 0.000000000000000000, 0.000000000000000000, 405.0000000000000000 ) ) ;
#77 = CARTESIAN_POINT ( 'NONE',  ( 0.000000000000000000, 0.000000000000000000, 405.0000000000000000 ) ) ;
#78 = CC_DESIGN_PERSON_AND_ORGANIZATION_ASSIGNMENT ( #301, #225, ( #38 ) ) ;
#79 = MANIFOLD_SOLID_BREP ( 'Zaoblit1', #144 ) ;
#80 = ADVANCED_FACE ( 'NONE', ( #110 ), #15, .T. ) ;
#81 = ORIENTED_EDGE ( 'NONE', *, *, #284, .T. ) ;
#82 = ORIENTED_EDGE ( 'NONE', *, *, #125, .F. ) ;
#83 = PERSON_AND_ORGANIZATION ( #87, #44 ) ;
#84 = AXIS2_PLACEMENT_3D ( 'NONE', #154, #253, #47 ) ;
#85 = LINE ( 'NONE', #173, #291 ) ;
#86 = EDGE_LOOP ( 'NONE', ( #244, #81 ) ) ;
#87 = PERSON ( 'NEURÈENÝ', 'NEURÈENÝ', 'NEURÈENÝ', ('NEURÈENÝ'), ('NEURÈENÝ'), ('NEURÈENÝ') ) ;
#88 = ADVANCED_FACE ( 'NONE', ( #66 ), #288, .F. ) ;
#89 = VERTEX_POINT ( 'NONE', #106 ) ;
#90 = VERTEX_POINT ( 'NONE', #199 ) ;
#91 = CARTESIAN_POINT ( 'NONE',  ( 7.000000000000000000, 8.572527594031473190E-16, 5.000000000000000000 ) ) ;
#92 = APPROVAL_PERSON_ORGANIZATION ( #16, #179, #59 ) ;
#93 = FACE_OUTER_BOUND ( 'NONE', #265, .T. ) ;
#94 = DIRECTION ( 'NONE',  ( 0.000000000000000000, 0.000000000000000000, 1.000000000000000000 ) ) ;
#95 = DIRECTION ( 'NONE',  ( -0.000000000000000000, -0.000000000000000000, -1.000000000000000000 ) ) ;
#96 = CARTESIAN_POINT ( 'NONE',  ( 4.299999999999998934, 0.000000000000000000, 4.999999999999991118 ) ) ;
#97 = CARTESIAN_POINT ( 'NONE',  ( 0.000000000000000000, 0.000000000000000000, 5.000000000000000000 ) ) ;
#98 =( NAMED_UNIT ( * ) SI_UNIT ( $, .STERADIAN. ) SOLID_ANGLE_UNIT ( ) );
#99 = AXIS2_PLACEMENT_3D ( 'NONE', #260, #114, #34 ) ;
#100 = VERTEX_POINT ( 'NONE', #193 ) ;
#101 = EDGE_CURVE ( 'NONE', #100, #41, #307, .T. ) ;
#102 = EDGE_LOOP ( 'NONE', ( #191, #28, #226, #299 ) ) ;
#103 = ORIENTED_EDGE ( 'NONE', *, *, #284, .F. ) ;
#104 = CIRCLE ( 'NONE', #118, 4.299999999999998934 ) ;
#105 = APPLICATION_CONTEXT ( 'configuration controlled 3d designs of mechanical parts and assemblies' ) ;
#106 = CARTESIAN_POINT ( 'NONE',  ( -4.099999999999999645, 0.000000000000000000, 405.0000000000000000 ) ) ;
#107 = COORDINATED_UNIVERSAL_TIME_OFFSET ( 1, 0, .AHEAD. ) ;
#108 = DIRECTION ( 'NONE',  ( -0.000000000000000000, -0.000000000000000000, -1.000000000000000000 ) ) ;
#109 = AXIS2_PLACEMENT_3D ( 'NONE', #72, #1, #178 ) ;
#110 = FACE_OUTER_BOUND ( 'NONE', #248, .T. ) ;
#111 = CALENDAR_DATE ( 2022, 7, 7 ) ;
#112 = PRODUCT_DEFINITION ( 'NEZNÁMÝ', '', #38, #211 ) ;
#113 = DIRECTION ( 'NONE',  ( 1.000000000000000000, 0.000000000000000000, 0.000000000000000000 ) ) ;
#114 = DIRECTION ( 'NONE',  ( -0.000000000000000000, -0.000000000000000000, -1.000000000000000000 ) ) ;
#115 = DIRECTION ( 'NONE',  ( 0.000000000000000000, 0.000000000000000000, 1.000000000000000000 ) ) ;
#116 = DIRECTION ( 'NONE',  ( -1.000000000000000000, 0.000000000000000000, 0.000000000000000000 ) ) ;
#117 = DIRECTION ( 'NONE',  ( 0.000000000000000000, 0.000000000000000000, 1.000000000000000000 ) ) ;
#118 = AXIS2_PLACEMENT_3D ( 'NONE', #97, #185, #202 ) ;
#119 = EDGE_LOOP ( 'NONE', ( #120, #188, #8, #68 ) ) ;
#120 = ORIENTED_EDGE ( 'NONE', *, *, #166, .F. ) ;
#121 = VERTEX_POINT ( 'NONE', #280 ) ;
#122 = MECHANICAL_CONTEXT ( 'NONE', #300, 'mechanical' ) ;
#123 = LOCAL_TIME ( 14, 32, 11.00000000000000000, #107 ) ;
#124 = CALENDAR_DATE ( 2022, 7, 7 ) ;
#125 = EDGE_CURVE ( 'NONE', #201, #214, #184, .T. ) ;
#126 = ORIENTED_EDGE ( 'NONE', *, *, #125, .T. ) ;
#127 = DIRECTION ( 'NONE',  ( 0.000000000000000000, 0.000000000000000000, 1.000000000000000000 ) ) ;
#128 = DIRECTION ( 'NONE',  ( -0.000000000000000000, -0.000000000000000000, -1.000000000000000000 ) ) ;
#129 = DATE_AND_TIME ( #42, #123 ) ;
#130 = EDGE_LOOP ( 'NONE', ( #293, #189 ) ) ;
#131 = PERSON_AND_ORGANIZATION ( #87, #44 ) ;
#132 = DIRECTION ( 'NONE',  ( -1.000000000000000000, 0.000000000000000000, 0.000000000000000000 ) ) ;
#133 = AXIS2_PLACEMENT_3D ( 'NONE', #192, #298, #152 ) ;
#134 = PERSON_AND_ORGANIZATION ( #87, #44 ) ;
#135 = DIRECTION ( 'NONE',  ( 0.000000000000000000, 0.000000000000000000, 1.000000000000000000 ) ) ;
#136 = DIRECTION ( 'NONE',  ( 1.000000000000000000, 0.000000000000000000, 0.000000000000000000 ) ) ;
#137 = AXIS2_PLACEMENT_3D ( 'NONE', #138, #115, #183 ) ;
#138 = CARTESIAN_POINT ( 'NONE',  ( 0.000000000000000000, 0.000000000000000000, 5.000000000000000000 ) ) ;
#139 = VECTOR ( 'NONE', #176, 1000.000000000000000 ) ;
#140 =( LENGTH_UNIT ( ) NAMED_UNIT ( * ) SI_UNIT ( .MILLI., .METRE. ) );
#141 = CARTESIAN_POINT ( 'NONE',  ( -4.099999999999999645, 0.000000000000000000, 405.0000000000000000 ) ) ;
#142 = CYLINDRICAL_SURFACE ( 'NONE', #99, 7.000000000000000000 ) ;
#143 = ORIENTED_EDGE ( 'NONE', *, *, #224, .T. ) ;
#144 = CLOSED_SHELL ( 'NONE', ( #156, #33, #231, #75, #262, #203, #162, #80, #88 ) ) ;
#145 = ORIENTED_EDGE ( 'NONE', *, *, #292, .F. ) ;
#146 = CC_DESIGN_PERSON_AND_ORGANIZATION_ASSIGNMENT ( #40, #247, ( #23 ) ) ;
#147 = VERTEX_POINT ( 'NONE', #237 ) ;
#148 = ADVANCED_BREP_SHAPE_REPRESENTATION ( '983a', ( #79, #170 ), #62 ) ;
#149 = DIRECTION ( 'NONE',  ( 1.000000000000000000, 0.000000000000000000, 0.000000000000000000 ) ) ;
#150 = AXIS2_PLACEMENT_3D ( 'NONE', #271, #128, #223 ) ;
#151 = VERTEX_POINT ( 'NONE', #254 ) ;
#152 = DIRECTION ( 'NONE',  ( 1.000000000000000000, 0.000000000000000000, 0.000000000000000000 ) ) ;
#153 = DATE_AND_TIME ( #230, #182 ) ;
#154 = CARTESIAN_POINT ( 'NONE',  ( 4.299999999999998934, 0.000000000000000000, 5.199999999999982414 ) ) ;
#155 = CARTESIAN_POINT ( 'NONE',  ( 0.000000000000000000, 0.000000000000000000, 0.000000000000000000 ) ) ;
#156 = ADVANCED_FACE ( 'NONE', ( #239 ), #221, .F. ) ;
#157 = DIRECTION ( 'NONE',  ( 1.000000000000000000, 0.000000000000000000, 0.000000000000000000 ) ) ;
#158 = AXIS2_PLACEMENT_3D ( 'NONE', #5, #51, #30 ) ;
#159 = LOCAL_TIME ( 14, 32, 11.00000000000000000, #22 ) ;
#160 = FACE_OUTER_BOUND ( 'NONE', #130, .T. ) ;
#161 = DIRECTION ( 'NONE',  ( -1.000000000000000000, 1.224646799147353454E-16, 0.000000000000000000 ) ) ;
#162 = ADVANCED_FACE ( 'NONE', ( #93 ), #204, .T. ) ;
#163 = DIRECTION ( 'NONE',  ( 1.000000000000000000, 0.000000000000000000, -0.000000000000000000 ) ) ;
#164 = AXIS2_PLACEMENT_3D ( 'NONE', #256, #117, #163 ) ;
#165 = APPROVAL_PERSON_ORGANIZATION ( #131, #56, #217 ) ;
#166 = EDGE_CURVE ( 'NONE', #147, #89, #295, .T. ) ;
#167 = EDGE_LOOP ( 'NONE', ( #43, #216, #246, #187 ) ) ;
#168 = CARTESIAN_POINT ( 'NONE',  ( 0.000000000000000000, 0.000000000000000000, 405.0000000000000000 ) ) ;
#169 = DIRECTION ( 'NONE',  ( 0.000000000000000000, 0.000000000000000000, 1.000000000000000000 ) ) ;
#170 = AXIS2_PLACEMENT_3D ( 'NONE', #278, #127, #63 ) ;
#171 = PERSON_AND_ORGANIZATION ( #87, #44 ) ;
#172 = EDGE_CURVE ( 'NONE', #151, #267, #286, .T. ) ;
#173 = CARTESIAN_POINT ( 'NONE',  ( -7.000000000000000000, 0.000000000000000000, 5.000000000000000000 ) ) ;
#174 = PERSON_AND_ORGANIZATION_ROLE ( 'classification_officer' ) ;
#175 = ORIENTED_EDGE ( 'NONE', *, *, #18, .F. ) ;
#176 = DIRECTION ( 'NONE',  ( -0.000000000000000000, -0.000000000000000000, -1.000000000000000000 ) ) ;
#177 = CIRCLE ( 'NONE', #109, 4.299999999999998934 ) ;
#178 = DIRECTION ( 'NONE',  ( 1.000000000000000000, 0.000000000000000000, 0.000000000000000000 ) ) ;
#179 = APPROVAL ( #304, 'NEURÈENÝ' ) ;
#180 = DIRECTION ( 'NONE',  ( 1.000000000000000000, 0.000000000000000000, 0.000000000000000000 ) ) ;
#181 = CARTESIAN_POINT ( 'NONE',  ( 0.000000000000000000, 0.000000000000000000, 405.0000000000000000 ) ) ;
#182 = LOCAL_TIME ( 14, 32, 11.00000000000000000, #27 ) ;
#183 = DIRECTION ( 'NONE',  ( 1.000000000000000000, 0.000000000000000000, 0.000000000000000000 ) ) ;
#184 = CIRCLE ( 'NONE', #84, 0.1999999999999996503 ) ;
#185 = DIRECTION ( 'NONE',  ( -0.000000000000000000, -0.000000000000000000, -1.000000000000000000 ) ) ;
#186 = AXIS2_PLACEMENT_3D ( 'NONE', #77, #95, #116 ) ;
#187 = ORIENTED_EDGE ( 'NONE', *, *, #71, .F. ) ;
#188 = ORIENTED_EDGE ( 'NONE', *, *, #258, .T. ) ;
#189 = ORIENTED_EDGE ( 'NONE', *, *, #215, .F. ) ;
#190 = AXIS2_PLACEMENT_3D ( 'NONE', #155, #94, #180 ) ;
#191 = ORIENTED_EDGE ( 'NONE', *, *, #101, .F. ) ;
#192 = CARTESIAN_POINT ( 'NONE',  ( 0.000000000000000000, 0.000000000000000000, 5.199999999999982414 ) ) ;
#193 = CARTESIAN_POINT ( 'NONE',  ( 7.000000000000000000, 8.572527594031473190E-16, 5.000000000000000000 ) ) ;
#194 = APPROVAL_DATE_TIME ( #129, #179 ) ;
#195 = AXIS2_PLACEMENT_3D ( 'NONE', #289, #257, #136 ) ;
#196 = DIRECTION ( 'NONE',  ( 1.000000000000000000, 0.000000000000000000, -0.000000000000000000 ) ) ;
#197 = AXIS2_PLACEMENT_3D ( 'NONE', #181, #283, #285 ) ;
#198 = PERSON_AND_ORGANIZATION ( #87, #44 ) ;
#199 = CARTESIAN_POINT ( 'NONE',  ( -7.000000000000000000, 0.000000000000000000, 0.000000000000000000 ) ) ;
#200 = DATE_AND_TIME ( #111, #159 ) ;
#201 = VERTEX_POINT ( 'NONE', #6 ) ;
#202 = DIRECTION ( 'NONE',  ( 1.000000000000000000, 0.000000000000000000, 0.000000000000000000 ) ) ;
#203 = ADVANCED_FACE ( 'NONE', ( #160 ), #32, .F. ) ;
#204 = CYLINDRICAL_SURFACE ( 'NONE', #186, 4.099999999999999645 ) ;
#205 = DIRECTION ( 'NONE',  ( -0.000000000000000000, -0.000000000000000000, -1.000000000000000000 ) ) ;
#206 = CARTESIAN_POINT ( 'NONE',  ( 4.099999999999999645, 5.021051876504147385E-16, 405.0000000000000000 ) ) ;
#207 = CC_DESIGN_SECURITY_CLASSIFICATION ( #243, ( #38 ) ) ;
#208 = APPROVAL ( #46, 'NEURÈENÝ' ) ;
#209 = CARTESIAN_POINT ( 'NONE',  ( -4.299999999999998934, 5.265981236333617484E-16, 4.999999999999991118 ) ) ;
#210 = APPLICATION_PROTOCOL_DEFINITION ( 'international standard', 'config_control_design', 1994, #300 ) ;
#211 = DESIGN_CONTEXT ( 'detailed design', #105, 'design' ) ;
#212 = ORIENTED_EDGE ( 'NONE', *, *, #258, .F. ) ;
#213 = CIRCLE ( 'NONE', #31, 7.000000000000000000 ) ;
#214 = VERTEX_POINT ( 'NONE', #96 ) ;
#215 = EDGE_CURVE ( 'NONE', #41, #90, #36, .T. ) ;
#216 = ORIENTED_EDGE ( 'NONE', *, *, #101, .T. ) ;
#217 = APPROVAL_ROLE ( '' ) ;
#218 = CC_DESIGN_PERSON_AND_ORGANIZATION_ASSIGNMENT ( #198, #174, ( #243 ) ) ;
#219 = CC_DESIGN_APPROVAL ( #56, ( #112 ) ) ;
#220 = CARTESIAN_POINT ( 'NONE',  ( 0.000000000000000000, 0.000000000000000000, 5.000000000000000000 ) ) ;
#221 = TOROIDAL_SURFACE ( 'NONE', #255, 4.299999999999998934, 0.2000000000000000111 ) ;
#222 = DATE_AND_TIME ( #12, #11 ) ;
#223 = DIRECTION ( 'NONE',  ( -1.000000000000000000, 0.000000000000000000, 0.000000000000000000 ) ) ;
#224 = EDGE_CURVE ( 'NONE', #89, #151, #49, .T. ) ;
#225 = PERSON_AND_ORGANIZATION_ROLE ( 'creator' ) ;
#226 = ORIENTED_EDGE ( 'NONE', *, *, #71, .T. ) ;
#227 = CIRCLE ( 'NONE', #190, 7.000000000000000000 ) ;
#228 = COORDINATED_UNIVERSAL_TIME_OFFSET ( 1, 0, .AHEAD. ) ;
#229 = CARTESIAN_POINT ( 'NONE',  ( 0.000000000000000000, 0.000000000000000000, 5.199999999999982414 ) ) ;
#230 = CALENDAR_DATE ( 2022, 7, 7 ) ;
#231 = ADVANCED_FACE ( 'NONE', ( #234 ), #142, .T. ) ;
#232 = ORIENTED_EDGE ( 'NONE', *, *, #18, .T. ) ;
#233 = CC_DESIGN_PERSON_AND_ORGANIZATION_ASSIGNMENT ( #171, #272, ( #38 ) ) ;
#234 = FACE_OUTER_BOUND ( 'NONE', #167, .T. ) ;
#235 = CARTESIAN_POINT ( 'NONE',  ( -4.299999999999998934, 5.265981236333617484E-16, 5.199999999999982414 ) ) ;
#236 = AXIS2_PLACEMENT_3D ( 'NONE', #220, #108, #132 ) ;
#237 = CARTESIAN_POINT ( 'NONE',  ( 4.099999999999999645, 5.021051876504147385E-16, 405.0000000000000000 ) ) ;
#238 = FACE_OUTER_BOUND ( 'NONE', #275, .T. ) ;
#239 = FACE_OUTER_BOUND ( 'NONE', #9, .T. ) ;
#240 = CC_DESIGN_DATE_AND_TIME_ASSIGNMENT ( #268, #67, ( #112 ) ) ;
#241 =( NAMED_UNIT ( * ) PLANE_ANGLE_UNIT ( ) SI_UNIT ( $, .RADIAN. ) );
#242 = AXIS2_PLACEMENT_3D ( 'NONE', #76, #50, #157 ) ;
#243 = SECURITY_CLASSIFICATION ( '', '', #249 ) ;
#244 = ORIENTED_EDGE ( 'NONE', *, *, #276, .T. ) ;
#245 = APPROVAL_DATE_TIME ( #153, #208 ) ;
#246 = ORIENTED_EDGE ( 'NONE', *, *, #215, .T. ) ;
#247 = PERSON_AND_ORGANIZATION_ROLE ( 'design_owner' ) ;
#248 = EDGE_LOOP ( 'NONE', ( #10, #70 ) ) ;
#249 = SECURITY_CLASSIFICATION_LEVEL ( 'unclassified' ) ;
#250 = CARTESIAN_POINT ( 'NONE',  ( 0.000000000000000000, 0.000000000000000000, 5.199999999999982414 ) ) ;
#251 = CARTESIAN_POINT ( 'NONE',  ( 0.000000000000000000, 0.000000000000000000, 5.000000000000000000 ) ) ;
#252 = APPROVAL_ROLE ( '' ) ;
#253 = DIRECTION ( 'NONE',  ( 0.000000000000000000, -1.000000000000000000, 0.000000000000000000 ) ) ;
#254 = CARTESIAN_POINT ( 'NONE',  ( -4.099999999999999645, 0.000000000000000000, 5.199999999999982414 ) ) ;
#255 = AXIS2_PLACEMENT_3D ( 'NONE', #7, #52, #281 ) ;
#256 = CARTESIAN_POINT ( 'NONE',  ( 0.000000000000000000, 0.000000000000000000, 5.000000000000000000 ) ) ;
#257 = DIRECTION ( 'NONE',  ( 0.000000000000000000, 0.000000000000000000, 1.000000000000000000 ) ) ;
#258 = EDGE_CURVE ( 'NONE', #147, #201, #259, .T. ) ;
#259 = LINE ( 'NONE', #206, #279 ) ;
#260 = CARTESIAN_POINT ( 'NONE',  ( 0.000000000000000000, 0.000000000000000000, 5.000000000000000000 ) ) ;
#261 = CC_DESIGN_APPROVAL ( #208, ( #243 ) ) ;
#262 = ADVANCED_FACE ( 'NONE', ( #3, #238 ), #29, .T. ) ;
#263 = EDGE_LOOP ( 'NONE', ( #64, #57, #126, #103 ) ) ;
#264 = EDGE_CURVE ( 'NONE', #100, #121, #270, .T. ) ;
#265 = EDGE_LOOP ( 'NONE', ( #212, #145, #143, #232 ) ) ;
#266 = AXIS2_PLACEMENT_3D ( 'NONE', #250, #169, #303 ) ;
#267 = VERTEX_POINT ( 'NONE', #209 ) ;
#268 = DATE_AND_TIME ( #124, #74 ) ;
#269 = FACE_OUTER_BOUND ( 'NONE', #119, .T. ) ;
#270 = CIRCLE ( 'NONE', #137, 7.000000000000000000 ) ;
#271 = CARTESIAN_POINT ( 'NONE',  ( 0.000000000000000000, 0.000000000000000000, 405.0000000000000000 ) ) ;
#272 = PERSON_AND_ORGANIZATION_ROLE ( 'design_supplier' ) ;
#273 = FACE_OUTER_BOUND ( 'NONE', #102, .T. ) ;
#274 = APPLICATION_PROTOCOL_DEFINITION ( 'international standard', 'config_control_design', 1994, #105 ) ;
#275 = EDGE_LOOP ( 'NONE', ( #296, #54 ) ) ;
#276 = EDGE_CURVE ( 'NONE', #214, #267, #104, .T. ) ;
#277 = PRODUCT_DEFINITION_SHAPE ( 'NONE', 'NONE',  #112 ) ;
#278 = CARTESIAN_POINT ( 'NONE',  ( 0.000000000000000000, 0.000000000000000000, 0.000000000000000000 ) ) ;
#279 = VECTOR ( 'NONE', #205, 1000.000000000000000 ) ;
#280 = CARTESIAN_POINT ( 'NONE',  ( -7.000000000000000000, 0.000000000000000000, 5.000000000000000000 ) ) ;
#281 = DIRECTION ( 'NONE',  ( 1.000000000000000000, 0.000000000000000000, 0.000000000000000000 ) ) ;
#282 = CIRCLE ( 'NONE', #133, 4.099999999999999645 ) ;
#283 = DIRECTION ( 'NONE',  ( 0.000000000000000000, 0.000000000000000000, 1.000000000000000000 ) ) ;
#284 = EDGE_CURVE ( 'NONE', #267, #214, #177, .T. ) ;
#285 = DIRECTION ( 'NONE',  ( 1.000000000000000000, 0.000000000000000000, 0.000000000000000000 ) ) ;
#286 = CIRCLE ( 'NONE', #61, 0.1999999999999996503 ) ;
#287 = DIRECTION ( 'NONE',  ( -0.000000000000000000, -0.000000000000000000, -1.000000000000000000 ) ) ;
#288 = TOROIDAL_SURFACE ( 'NONE', #24, 4.299999999999998934, 0.2000000000000000111 ) ;
#289 = CARTESIAN_POINT ( 'NONE',  ( 0.000000000000000000, 0.000000000000000000, 0.000000000000000000 ) ) ;
#290 = EDGE_CURVE ( 'NONE', #90, #41, #227, .T. ) ;
#291 = VECTOR ( 'NONE', #45, 1000.000000000000000 ) ;
#292 = EDGE_CURVE ( 'NONE', #89, #147, #302, .T. ) ;
#293 = ORIENTED_EDGE ( 'NONE', *, *, #290, .F. ) ;
#294 = CC_DESIGN_DATE_AND_TIME_ASSIGNMENT ( #200, #306, ( #243 ) ) ;
#295 = CIRCLE ( 'NONE', #242, 4.099999999999999645 ) ;
#296 = ORIENTED_EDGE ( 'NONE', *, *, #37, .T. ) ;
#297 = COORDINATED_UNIVERSAL_TIME_OFFSET ( 1, 0, .AHEAD. ) ;
#298 = DIRECTION ( 'NONE',  ( 0.000000000000000000, 0.000000000000000000, 1.000000000000000000 ) ) ;
#299 = ORIENTED_EDGE ( 'NONE', *, *, #290, .T. ) ;
#300 = APPLICATION_CONTEXT ( 'configuration controlled 3d designs of mechanical parts and assemblies' ) ;
#301 = PERSON_AND_ORGANIZATION ( #87, #44 ) ;
#302 = CIRCLE ( 'NONE', #197, 4.099999999999999645 ) ;
#303 = DIRECTION ( 'NONE',  ( 1.000000000000000000, 0.000000000000000000, 0.000000000000000000 ) ) ;
#304 = APPROVAL_STATUS ( 'not_yet_approved' ) ;
#305 = ORIENTED_EDGE ( 'NONE', *, *, #276, .F. ) ;
#306 = DATE_TIME_ROLE ( 'classification_date' ) ;
#307 = LINE ( 'NONE', #91, #139 ) ;
ENDSEC;
END-ISO-10303-21;
