ISO-10303-21;
HEADER;
FILE_DESCRIPTION (( 'STEP AP203' ),
    '1' );
FILE_NAME ('74b9.STEP',
    '2022-07-07T12:25:56',
    ( '' ),
    ( '' ),
    'SwSTEP 2.0',
    'SolidWorks 2019',
    '' );
FILE_SCHEMA (( 'CONFIG_CONTROL_DESIGN' ));
ENDSEC;

DATA;
#1 = DIRECTION ( 'NONE',  ( 1.000000000000000000, 0.000000000000000000, 0.000000000000000000 ) ) ;
#2 = ORIENTED_EDGE ( 'NONE', *, *, #43, .T. ) ;
#3 = EDGE_CURVE ( 'NONE', #259, #24, #191, .T. ) ;
#4 = DIRECTION ( 'NONE',  ( -1.000000000000000000, 0.000000000000000000, 0.000000000000000000 ) ) ;
#5 = CARTESIAN_POINT ( 'NONE',  ( 8.000000000000000000, 9.797174393178825657E-16, 0.000000000000000000 ) ) ;
#6 = EDGE_CURVE ( 'NONE', #262, #192, #287, .T. ) ;
#7 = CARTESIAN_POINT ( 'NONE',  ( 5.699999999999999289, 0.000000000000000000, 5.199999999999996625 ) ) ;
#8 = TOROIDAL_SURFACE ( 'NONE', #185, 5.699999999999999289, 0.2000000000000000111 ) ;
#9 = CC_DESIGN_PERSON_AND_ORGANIZATION_ASSIGNMENT ( #223, #158, ( #80 ) ) ;
#10 = CARTESIAN_POINT ( 'NONE',  ( 5.699999999999999289, 0.000000000000000000, 4.999999999999998224 ) ) ;
#11 = DIRECTION ( 'NONE',  ( -0.000000000000000000, -0.000000000000000000, -1.000000000000000000 ) ) ;
#12 = DATE_AND_TIME ( #278, #273 ) ;
#13 = PERSON_AND_ORGANIZATION ( #244, #174 ) ;
#14 = PRODUCT_RELATED_PRODUCT_CATEGORY ( 'detail', '', ( #94 ) ) ;
#15 = PERSON_AND_ORGANIZATION ( #244, #174 ) ;
#16 = VERTEX_POINT ( 'NONE', #240 ) ;
#17 = COORDINATED_UNIVERSAL_TIME_OFFSET ( 1, 0, .AHEAD. ) ;
#18 = ADVANCED_FACE ( 'NONE', ( #100, #105 ), #56, .T. ) ;
#19 = FACE_OUTER_BOUND ( 'NONE', #72, .T. ) ;
#20 = CC_DESIGN_DATE_AND_TIME_ASSIGNMENT ( #12, #115, ( #80 ) ) ;
#21 = CARTESIAN_POINT ( 'NONE',  ( 0.000000000000000000, 0.000000000000000000, 5.000000000000000000 ) ) ;
#22 = CIRCLE ( 'NONE', #253, 5.500000000000000000 ) ;
#23 = APPROVAL ( #274, 'NEURÈENÝ' ) ;
#24 = VERTEX_POINT ( 'NONE', #119 ) ;
#25 = CLOSED_SHELL ( 'NONE', ( #230, #153, #241, #97, #18, #48, #162, #84, #164 ) ) ;
#26 = CC_DESIGN_PERSON_AND_ORGANIZATION_ASSIGNMENT ( #13, #116, ( #292 ) ) ;
#27 = EDGE_LOOP ( 'NONE', ( #46, #99 ) ) ;
#28 = EDGE_LOOP ( 'NONE', ( #138, #122, #227, #256 ) ) ;
#29 = CC_DESIGN_SECURITY_CLASSIFICATION ( #126, ( #292 ) ) ;
#30 = CARTESIAN_POINT ( 'NONE',  ( -5.500000000000000000, 0.000000000000000000, 105.0000000000000142 ) ) ;
#31 = EDGE_CURVE ( 'NONE', #24, #259, #268, .T. ) ;
#32 = DIRECTION ( 'NONE',  ( 1.000000000000000000, 0.000000000000000000, -0.000000000000000000 ) ) ;
#33 = CARTESIAN_POINT ( 'NONE',  ( 0.000000000000000000, 0.000000000000000000, 5.199999999999996625 ) ) ;
#34 = CIRCLE ( 'NONE', #53, 5.699999999999999289 ) ;
#35 = CARTESIAN_POINT ( 'NONE',  ( 0.000000000000000000, 0.000000000000000000, 5.199999999999996625 ) ) ;
#36 = UNCERTAINTY_MEASURE_WITH_UNIT (LENGTH_MEASURE( 1.000000000000000082E-05 ), #258, 'distance_accuracy_value', 'NONE');
#37 = CARTESIAN_POINT ( 'NONE',  ( -8.000000000000000000, 0.000000000000000000, 5.000000000000000000 ) ) ;
#38 = APPROVAL_DATE_TIME ( #250, #263 ) ;
#39 = APPROVAL ( #146, 'NEURÈENÝ' ) ;
#40 = PERSON_AND_ORGANIZATION ( #244, #174 ) ;
#41 = VECTOR ( 'NONE', #11, 1000.000000000000000 ) ;
#42 = APPROVAL_PERSON_ORGANIZATION ( #44, #263, #137 ) ;
#43 = EDGE_CURVE ( 'NONE', #16, #187, #200, .T. ) ;
#44 = PERSON_AND_ORGANIZATION ( #244, #174 ) ;
#45 = EDGE_LOOP ( 'NONE', ( #55, #2 ) ) ;
#46 = ORIENTED_EDGE ( 'NONE', *, *, #3, .T. ) ;
#47 = TOROIDAL_SURFACE ( 'NONE', #62, 5.699999999999999289, 0.2000000000000000111 ) ;
#48 = ADVANCED_FACE ( 'NONE', ( #19 ), #166, .F. ) ;
#49 = DIRECTION ( 'NONE',  ( 0.000000000000000000, 0.000000000000000000, 1.000000000000000000 ) ) ;
#50 = ORIENTED_EDGE ( 'NONE', *, *, #92, .T. ) ;
#51 = CALENDAR_DATE ( 2022, 7, 7 ) ;
#52 = CARTESIAN_POINT ( 'NONE',  ( 0.000000000000000000, 0.000000000000000000, 0.000000000000000000 ) ) ;
#53 = AXIS2_PLACEMENT_3D ( 'NONE', #219, #220, #201 ) ;
#54 = PERSON_AND_ORGANIZATION ( #244, #174 ) ;
#55 = ORIENTED_EDGE ( 'NONE', *, *, #175, .T. ) ;
#56 = PLANE ( 'NONE',  #102 ) ;
#57 = DIRECTION ( 'NONE',  ( 0.000000000000000000, 0.000000000000000000, 1.000000000000000000 ) ) ;
#58 = LINE ( 'NONE', #270, #306 ) ;
#59 = CARTESIAN_POINT ( 'NONE',  ( 5.500000000000000000, 6.735557395310442023E-16, 105.0000000000000142 ) ) ;
#60 = FACE_OUTER_BOUND ( 'NONE', #261, .T. ) ;
#61 = EDGE_CURVE ( 'NONE', #214, #208, #160, .T. ) ;
#62 = AXIS2_PLACEMENT_3D ( 'NONE', #35, #197, #179 ) ;
#63 = APPROVAL_PERSON_ORGANIZATION ( #54, #39, #104 ) ;
#64 = DIRECTION ( 'NONE',  ( -0.000000000000000000, -0.000000000000000000, -1.000000000000000000 ) ) ;
#65 = MECHANICAL_CONTEXT ( 'NONE', #136, 'mechanical' ) ;
#66 = DATE_AND_TIME ( #117, #285 ) ;
#67 = CC_DESIGN_APPROVAL ( #23, ( #80 ) ) ;
#68 = APPLICATION_CONTEXT ( 'configuration controlled 3d designs of mechanical parts and assemblies' ) ;
#69 = AXIS2_PLACEMENT_3D ( 'NONE', #281, #49, #213 ) ;
#70 = DIRECTION ( 'NONE',  ( -0.000000000000000000, -0.000000000000000000, -1.000000000000000000 ) ) ;
#71 = CARTESIAN_POINT ( 'NONE',  ( -8.000000000000000000, 0.000000000000000000, 5.000000000000000000 ) ) ;
#72 = EDGE_LOOP ( 'NONE', ( #79, #301 ) ) ;
#73 = EDGE_CURVE ( 'NONE', #192, #262, #288, .T. ) ;
#74 = ORIENTED_EDGE ( 'NONE', *, *, #151, .T. ) ;
#75 = AXIS2_PLACEMENT_3D ( 'NONE', #229, #228, #96 ) ;
#76 = PRODUCT_DEFINITION_SHAPE ( 'NONE', 'NONE',  #80 ) ;
#77 = AXIS2_PLACEMENT_3D ( 'NONE', #103, #85, #32 ) ;
#78 = ORIENTED_EDGE ( 'NONE', *, *, #135, .F. ) ;
#79 = ORIENTED_EDGE ( 'NONE', *, *, #6, .F. ) ;
#80 = PRODUCT_DEFINITION ( 'NEZNÁMÝ', '', #292, #254 ) ;
#81 = APPROVAL_DATE_TIME ( #237, #39 ) ;
#82 = ORIENTED_EDGE ( 'NONE', *, *, #113, .T. ) ;
#83 = DIRECTION ( 'NONE',  ( 1.000000000000000000, 0.000000000000000000, 0.000000000000000000 ) ) ;
#84 = ADVANCED_FACE ( 'NONE', ( #101 ), #190, .T. ) ;
#85 = DIRECTION ( 'NONE',  ( 0.000000000000000000, 0.000000000000000000, 1.000000000000000000 ) ) ;
#86 = CARTESIAN_POINT ( 'NONE',  ( 0.000000000000000000, 0.000000000000000000, 5.199999999999996625 ) ) ;
#87 = DIRECTION ( 'NONE',  ( 0.000000000000000000, -1.000000000000000000, 0.000000000000000000 ) ) ;
#88 = DIRECTION ( 'NONE',  ( 0.000000000000000000, 0.000000000000000000, 1.000000000000000000 ) ) ;
#89 = DIRECTION ( 'NONE',  ( 0.000000000000000000, 0.000000000000000000, -1.000000000000000000 ) ) ;
#90 = AXIS2_PLACEMENT_3D ( 'NONE', #178, #64, #128 ) ;
#91 = APPROVAL_PERSON_ORGANIZATION ( #40, #23, #98 ) ;
#92 = EDGE_CURVE ( 'NONE', #208, #159, #294, .T. ) ;
#93 = APPROVAL_DATE_TIME ( #66, #23 ) ;
#94 = PRODUCT ( '74b9', '74b9', '', ( #65 ) ) ;
#95 = ORIENTED_EDGE ( 'NONE', *, *, #61, .F. ) ;
#96 = DIRECTION ( 'NONE',  ( 1.000000000000000000, 0.000000000000000000, 0.000000000000000000 ) ) ;
#97 = ADVANCED_FACE ( 'NONE', ( #267 ), #177, .T. ) ;
#98 = APPROVAL_ROLE ( '' ) ;
#99 = ORIENTED_EDGE ( 'NONE', *, *, #31, .T. ) ;
#100 = FACE_BOUND ( 'NONE', #45, .T. ) ;
#101 = FACE_OUTER_BOUND ( 'NONE', #157, .T. ) ;
#102 = AXIS2_PLACEMENT_3D ( 'NONE', #21, #123, #120 ) ;
#103 = CARTESIAN_POINT ( 'NONE',  ( 0.000000000000000000, 0.000000000000000000, 105.0000000000000142 ) ) ;
#104 = APPROVAL_ROLE ( '' ) ;
#105 = FACE_OUTER_BOUND ( 'NONE', #27, .T. ) ;
#106 = EDGE_CURVE ( 'NONE', #259, #262, #196, .T. ) ;
#107 = EDGE_LOOP ( 'NONE', ( #167, #95, #266, #74 ) ) ;
#108 = DIRECTION ( 'NONE',  ( -0.000000000000000000, -0.000000000000000000, -1.000000000000000000 ) ) ;
#109 = CARTESIAN_POINT ( 'NONE',  ( 5.500000000000000000, 6.735557395310442023E-16, 105.0000000000000142 ) ) ;
#110 = DIRECTION ( 'NONE',  ( 1.000000000000000000, 0.000000000000000000, 0.000000000000000000 ) ) ;
#111 = AXIS2_PLACEMENT_3D ( 'NONE', #242, #173, #4 ) ;
#112 = CARTESIAN_POINT ( 'NONE',  ( -5.500000000000000000, 0.000000000000000000, 105.0000000000000142 ) ) ;
#113 = EDGE_CURVE ( 'NONE', #24, #192, #58, .T. ) ;
#114 = CARTESIAN_POINT ( 'NONE',  ( -5.500000000000000000, 0.000000000000000000, 5.199999999999996625 ) ) ;
#115 = DATE_TIME_ROLE ( 'creation_date' ) ;
#116 = PERSON_AND_ORGANIZATION_ROLE ( 'design_supplier' ) ;
#117 = CALENDAR_DATE ( 2022, 7, 7 ) ;
#118 = ORIENTED_EDGE ( 'NONE', *, *, #151, .F. ) ;
#119 = CARTESIAN_POINT ( 'NONE',  ( 8.000000000000000000, 9.797174393178825657E-16, 5.000000000000000000 ) ) ;
#120 = DIRECTION ( 'NONE',  ( 1.000000000000000000, 0.000000000000000000, -0.000000000000000000 ) ) ;
#121 = AXIS2_PLACEMENT_3D ( 'NONE', #260, #148, #171 ) ;
#122 = ORIENTED_EDGE ( 'NONE', *, *, #3, .F. ) ;
#123 = DIRECTION ( 'NONE',  ( 0.000000000000000000, 0.000000000000000000, 1.000000000000000000 ) ) ;
#124 = EDGE_CURVE ( 'NONE', #214, #144, #247, .T. ) ;
#125 = EDGE_LOOP ( 'NONE', ( #304, #78, #282, #236 ) ) ;
#126 = SECURITY_CLASSIFICATION ( '', '', #225 ) ;
#127 = DIRECTION ( 'NONE',  ( 0.000000000000000000, 0.000000000000000000, 1.000000000000000000 ) ) ;
#128 = DIRECTION ( 'NONE',  ( -1.000000000000000000, 0.000000000000000000, 0.000000000000000000 ) ) ;
#129 = CC_DESIGN_PERSON_AND_ORGANIZATION_ASSIGNMENT ( #251, #210, ( #94 ) ) ;
#130 = CYLINDRICAL_SURFACE ( 'NONE', #111, 5.500000000000000000 ) ;
#131 = CIRCLE ( 'NONE', #302, 0.1999999999999996503 ) ;
#132 = CC_DESIGN_APPROVAL ( #39, ( #126 ) ) ;
#133 = CYLINDRICAL_SURFACE ( 'NONE', #298, 8.000000000000000000 ) ;
#134 =( NAMED_UNIT ( * ) PLANE_ANGLE_UNIT ( ) SI_UNIT ( $, .RADIAN. ) );
#135 = EDGE_CURVE ( 'NONE', #159, #144, #22, .T. ) ;
#136 = APPLICATION_CONTEXT ( 'configuration controlled 3d designs of mechanical parts and assemblies' ) ;
#137 = APPROVAL_ROLE ( '' ) ;
#138 = ORIENTED_EDGE ( 'NONE', *, *, #113, .F. ) ;
#139 = APPLICATION_PROTOCOL_DEFINITION ( 'international standard', 'config_control_design', 1994, #136 ) ;
#140 = MANIFOLD_SOLID_BREP ( 'Zaoblit1', #25 ) ;
#141 = ORIENTED_EDGE ( 'NONE', *, *, #106, .F. ) ;
#142 = CC_DESIGN_APPROVAL ( #263, ( #292 ) ) ;
#143 = DIRECTION ( 'NONE',  ( 1.000000000000000000, 0.000000000000000000, -0.000000000000000000 ) ) ;
#144 = VERTEX_POINT ( 'NONE', #114 ) ;
#145 = ORIENTED_EDGE ( 'NONE', *, *, #180, .F. ) ;
#146 = APPROVAL_STATUS ( 'not_yet_approved' ) ;
#147 = ORIENTED_EDGE ( 'NONE', *, *, #135, .T. ) ;
#148 = DIRECTION ( 'NONE',  ( -0.000000000000000000, -0.000000000000000000, -1.000000000000000000 ) ) ;
#149 = CARTESIAN_POINT ( 'NONE',  ( 0.000000000000000000, 0.000000000000000000, 105.0000000000000142 ) ) ;
#150 = CARTESIAN_POINT ( 'NONE',  ( 0.000000000000000000, 0.000000000000000000, 5.199999999999996625 ) ) ;
#151 = EDGE_CURVE ( 'NONE', #144, #159, #216, .T. ) ;
#152 = DIRECTION ( 'NONE',  ( -1.000000000000000000, 0.000000000000000000, 0.000000000000000000 ) ) ;
#153 = ADVANCED_FACE ( 'NONE', ( #291 ), #203, .T. ) ;
#154 = DIRECTION ( 'NONE',  ( 0.000000000000000000, 0.000000000000000000, 1.000000000000000000 ) ) ;
#155 = AXIS2_PLACEMENT_3D ( 'NONE', #188, #284, #143 ) ;
#156 = CALENDAR_DATE ( 2022, 7, 7 ) ;
#157 = EDGE_LOOP ( 'NONE', ( #239, #283 ) ) ;
#158 = PERSON_AND_ORGANIZATION_ROLE ( 'creator' ) ;
#159 = VERTEX_POINT ( 'NONE', #249 ) ;
#160 = CIRCLE ( 'NONE', #69, 5.500000000000000000 ) ;
#161 = VECTOR ( 'NONE', #198, 1000.000000000000000 ) ;
#162 = ADVANCED_FACE ( 'NONE', ( #289 ), #130, .T. ) ;
#163 = CC_DESIGN_PERSON_AND_ORGANIZATION_ASSIGNMENT ( #224, #182, ( #292 ) ) ;
#164 = ADVANCED_FACE ( 'NONE', ( #290 ), #8, .F. ) ;
#165 = ORIENTED_EDGE ( 'NONE', *, *, #73, .T. ) ;
#166 = PLANE ( 'NONE',  #155 ) ;
#167 = ORIENTED_EDGE ( 'NONE', *, *, #92, .F. ) ;
#168 = SHAPE_DEFINITION_REPRESENTATION ( #76, #189 ) ;
#169 = CARTESIAN_POINT ( 'NONE',  ( 0.000000000000000000, 0.000000000000000000, 5.000000000000000000 ) ) ;
#170 = ORIENTED_EDGE ( 'NONE', *, *, #175, .F. ) ;
#171 = DIRECTION ( 'NONE',  ( 1.000000000000000000, 0.000000000000000000, 0.000000000000000000 ) ) ;
#172 = CC_DESIGN_PERSON_AND_ORGANIZATION_ASSIGNMENT ( #15, #207, ( #126 ) ) ;
#173 = DIRECTION ( 'NONE',  ( -0.000000000000000000, -0.000000000000000000, -1.000000000000000000 ) ) ;
#174 = ORGANIZATION ( 'NEURÈENÝ', 'NEURÈENÝ', '' ) ;
#175 = EDGE_CURVE ( 'NONE', #187, #16, #34, .T. ) ;
#176 = AXIS2_PLACEMENT_3D ( 'NONE', #215, #193, #83 ) ;
#177 = CYLINDRICAL_SURFACE ( 'NONE', #202, 8.000000000000000000 ) ;
#178 = CARTESIAN_POINT ( 'NONE',  ( 0.000000000000000000, 0.000000000000000000, 105.0000000000000142 ) ) ;
#179 = DIRECTION ( 'NONE',  ( 1.000000000000000000, 0.000000000000000000, 0.000000000000000000 ) ) ;
#180 = EDGE_CURVE ( 'NONE', #208, #214, #221, .T. ) ;
#181 = CARTESIAN_POINT ( 'NONE',  ( -5.699999999999999289, 6.980486755139912122E-16, 5.199999999999996625 ) ) ;
#182 = PERSON_AND_ORGANIZATION_ROLE ( 'creator' ) ;
#183 = ORIENTED_EDGE ( 'NONE', *, *, #31, .F. ) ;
#184 = EDGE_CURVE ( 'NONE', #159, #187, #209, .T. ) ;
#185 = AXIS2_PLACEMENT_3D ( 'NONE', #86, #57, #110 ) ;
#186 = COORDINATED_UNIVERSAL_TIME_OFFSET ( 1, 0, .AHEAD. ) ;
#187 = VERTEX_POINT ( 'NONE', #10 ) ;
#188 = CARTESIAN_POINT ( 'NONE',  ( 0.000000000000000000, 0.000000000000000000, 0.000000000000000000 ) ) ;
#189 = ADVANCED_BREP_SHAPE_REPRESENTATION ( '74b9', ( #140, #75 ), #272 ) ;
#190 = PLANE ( 'NONE',  #77 ) ;
#191 = CIRCLE ( 'NONE', #226, 8.000000000000000000 ) ;
#192 = VERTEX_POINT ( 'NONE', #5 ) ;
#193 = DIRECTION ( 'NONE',  ( 0.000000000000000000, 0.000000000000000000, 1.000000000000000000 ) ) ;
#194 = AXIS2_PLACEMENT_3D ( 'NONE', #149, #127, #295 ) ;
#195 = EDGE_LOOP ( 'NONE', ( #183, #82, #165, #141 ) ) ;
#196 = LINE ( 'NONE', #37, #161 ) ;
#197 = DIRECTION ( 'NONE',  ( 0.000000000000000000, 0.000000000000000000, 1.000000000000000000 ) ) ;
#198 = DIRECTION ( 'NONE',  ( -0.000000000000000000, -0.000000000000000000, -1.000000000000000000 ) ) ;
#199 = AXIS2_PLACEMENT_3D ( 'NONE', #33, #88, #246 ) ;
#200 = CIRCLE ( 'NONE', #121, 5.699999999999999289 ) ;
#201 = DIRECTION ( 'NONE',  ( 1.000000000000000000, 0.000000000000000000, 0.000000000000000000 ) ) ;
#202 = AXIS2_PLACEMENT_3D ( 'NONE', #218, #269, #152 ) ;
#203 = CYLINDRICAL_SURFACE ( 'NONE', #90, 5.500000000000000000 ) ;
#204 = DIRECTION ( 'NONE',  ( 1.224646799147353207E-16, 1.000000000000000000, -0.000000000000000000 ) ) ;
#205 = LOCAL_TIME ( 14, 25, 56.00000000000000000, #300 ) ;
#206 = AXIS2_PLACEMENT_3D ( 'NONE', #233, #212, #307 ) ;
#207 = PERSON_AND_ORGANIZATION_ROLE ( 'classification_officer' ) ;
#208 = VERTEX_POINT ( 'NONE', #109 ) ;
#209 = CIRCLE ( 'NONE', #264, 0.1999999999999996503 ) ;
#210 = PERSON_AND_ORGANIZATION_ROLE ( 'design_owner' ) ;
#211 = DATE_AND_TIME ( #231, #205 ) ;
#212 = DIRECTION ( 'NONE',  ( 0.000000000000000000, 0.000000000000000000, 1.000000000000000000 ) ) ;
#213 = DIRECTION ( 'NONE',  ( 1.000000000000000000, 0.000000000000000000, 0.000000000000000000 ) ) ;
#214 = VERTEX_POINT ( 'NONE', #112 ) ;
#215 = CARTESIAN_POINT ( 'NONE',  ( 0.000000000000000000, 0.000000000000000000, 5.000000000000000000 ) ) ;
#216 = CIRCLE ( 'NONE', #199, 5.500000000000000000 ) ;
#217 = DIRECTION ( 'NONE',  ( 1.000000000000000000, 0.000000000000000000, 0.000000000000000000 ) ) ;
#218 = CARTESIAN_POINT ( 'NONE',  ( 0.000000000000000000, 0.000000000000000000, 5.000000000000000000 ) ) ;
#219 = CARTESIAN_POINT ( 'NONE',  ( 0.000000000000000000, 0.000000000000000000, 5.000000000000000000 ) ) ;
#220 = DIRECTION ( 'NONE',  ( -0.000000000000000000, -0.000000000000000000, -1.000000000000000000 ) ) ;
#221 = CIRCLE ( 'NONE', #194, 5.500000000000000000 ) ;
#222 = DIRECTION ( 'NONE',  ( -0.000000000000000000, -0.000000000000000000, -1.000000000000000000 ) ) ;
#223 = PERSON_AND_ORGANIZATION ( #244, #174 ) ;
#224 = PERSON_AND_ORGANIZATION ( #244, #174 ) ;
#225 = SECURITY_CLASSIFICATION_LEVEL ( 'unclassified' ) ;
#226 = AXIS2_PLACEMENT_3D ( 'NONE', #169, #286, #1 ) ;
#227 = ORIENTED_EDGE ( 'NONE', *, *, #106, .T. ) ;
#228 = DIRECTION ( 'NONE',  ( 0.000000000000000000, 0.000000000000000000, 1.000000000000000000 ) ) ;
#229 = CARTESIAN_POINT ( 'NONE',  ( 0.000000000000000000, 0.000000000000000000, 0.000000000000000000 ) ) ;
#230 = ADVANCED_FACE ( 'NONE', ( #60 ), #47, .F. ) ;
#231 = CALENDAR_DATE ( 2022, 7, 7 ) ;
#232 = ORIENTED_EDGE ( 'NONE', *, *, #297, .T. ) ;
#233 = CARTESIAN_POINT ( 'NONE',  ( 0.000000000000000000, 0.000000000000000000, 0.000000000000000000 ) ) ;
#234 = CC_DESIGN_DATE_AND_TIME_ASSIGNMENT ( #211, #280, ( #126 ) ) ;
#235 = COORDINATED_UNIVERSAL_TIME_OFFSET ( 1, 0, .AHEAD. ) ;
#236 = ORIENTED_EDGE ( 'NONE', *, *, #43, .F. ) ;
#237 = DATE_AND_TIME ( #51, #243 ) ;
#238 = DIRECTION ( 'NONE',  ( 0.000000000000000000, 0.000000000000000000, 1.000000000000000000 ) ) ;
#239 = ORIENTED_EDGE ( 'NONE', *, *, #61, .T. ) ;
#240 = CARTESIAN_POINT ( 'NONE',  ( -5.699999999999999289, 6.980486755139912122E-16, 4.999999999999998224 ) ) ;
#241 = ADVANCED_FACE ( 'NONE', ( #248 ), #133, .T. ) ;
#242 = CARTESIAN_POINT ( 'NONE',  ( 0.000000000000000000, 0.000000000000000000, 105.0000000000000142 ) ) ;
#243 = LOCAL_TIME ( 14, 25, 56.00000000000000000, #235 ) ;
#244 = PERSON ( 'NEURÈENÝ', 'NEURÈENÝ', 'NEURÈENÝ', ('NEURÈENÝ'), ('NEURÈENÝ'), ('NEURÈENÝ') ) ;
#245 = VECTOR ( 'NONE', #108, 1000.000000000000000 ) ;
#246 = DIRECTION ( 'NONE',  ( 1.000000000000000000, 0.000000000000000000, 0.000000000000000000 ) ) ;
#247 = LINE ( 'NONE', #30, #41 ) ;
#248 = FACE_OUTER_BOUND ( 'NONE', #195, .T. ) ;
#249 = CARTESIAN_POINT ( 'NONE',  ( 5.500000000000000000, 6.735557395310442023E-16, 5.199999999999996625 ) ) ;
#250 = DATE_AND_TIME ( #156, #277 ) ;
#251 = PERSON_AND_ORGANIZATION ( #244, #174 ) ;
#252 = ORIENTED_EDGE ( 'NONE', *, *, #184, .F. ) ;
#253 = AXIS2_PLACEMENT_3D ( 'NONE', #150, #154, #217 ) ;
#254 = DESIGN_CONTEXT ( 'detailed design', #68, 'design' ) ;
#255 = DIRECTION ( 'NONE',  ( -1.000000000000000000, 1.224646799147353454E-16, 0.000000000000000000 ) ) ;
#256 = ORIENTED_EDGE ( 'NONE', *, *, #6, .T. ) ;
#257 = DIRECTION ( 'NONE',  ( -1.000000000000000000, 0.000000000000000000, 0.000000000000000000 ) ) ;
#258 =( LENGTH_UNIT ( ) NAMED_UNIT ( * ) SI_UNIT ( .MILLI., .METRE. ) );
#259 = VERTEX_POINT ( 'NONE', #71 ) ;
#260 = CARTESIAN_POINT ( 'NONE',  ( 0.000000000000000000, 0.000000000000000000, 5.000000000000000000 ) ) ;
#261 = EDGE_LOOP ( 'NONE', ( #118, #232, #170, #252 ) ) ;
#262 = VERTEX_POINT ( 'NONE', #299 ) ;
#263 = APPROVAL ( #279, 'NEURÈENÝ' ) ;
#264 = AXIS2_PLACEMENT_3D ( 'NONE', #7, #87, #89 ) ;
#265 = ORIENTED_EDGE ( 'NONE', *, *, #124, .F. ) ;
#266 = ORIENTED_EDGE ( 'NONE', *, *, #124, .T. ) ;
#267 = FACE_OUTER_BOUND ( 'NONE', #28, .T. ) ;
#268 = CIRCLE ( 'NONE', #176, 8.000000000000000000 ) ;
#269 = DIRECTION ( 'NONE',  ( -0.000000000000000000, -0.000000000000000000, -1.000000000000000000 ) ) ;
#270 = CARTESIAN_POINT ( 'NONE',  ( 8.000000000000000000, 9.797174393178825657E-16, 5.000000000000000000 ) ) ;
#271 = CARTESIAN_POINT ( 'NONE',  ( 0.000000000000000000, 0.000000000000000000, 5.000000000000000000 ) ) ;
#272 =( GEOMETRIC_REPRESENTATION_CONTEXT ( 3 ) GLOBAL_UNCERTAINTY_ASSIGNED_CONTEXT ( ( #36 ) ) GLOBAL_UNIT_ASSIGNED_CONTEXT ( ( #258, #134, #275 ) ) REPRESENTATION_CONTEXT ( 'NONE', 'WORKASPACE' ) );
#273 = LOCAL_TIME ( 14, 25, 56.00000000000000000, #17 ) ;
#274 = APPROVAL_STATUS ( 'not_yet_approved' ) ;
#275 =( NAMED_UNIT ( * ) SI_UNIT ( $, .STERADIAN. ) SOLID_ANGLE_UNIT ( ) );
#276 = EDGE_LOOP ( 'NONE', ( #145, #50, #147, #265 ) ) ;
#277 = LOCAL_TIME ( 14, 25, 56.00000000000000000, #296 ) ;
#278 = CALENDAR_DATE ( 2022, 7, 7 ) ;
#279 = APPROVAL_STATUS ( 'not_yet_approved' ) ;
#280 = DATE_TIME_ROLE ( 'classification_date' ) ;
#281 = CARTESIAN_POINT ( 'NONE',  ( 0.000000000000000000, 0.000000000000000000, 105.0000000000000142 ) ) ;
#282 = ORIENTED_EDGE ( 'NONE', *, *, #184, .T. ) ;
#283 = ORIENTED_EDGE ( 'NONE', *, *, #180, .T. ) ;
#284 = DIRECTION ( 'NONE',  ( 0.000000000000000000, 0.000000000000000000, 1.000000000000000000 ) ) ;
#285 = LOCAL_TIME ( 14, 25, 56.00000000000000000, #186 ) ;
#286 = DIRECTION ( 'NONE',  ( 0.000000000000000000, 0.000000000000000000, 1.000000000000000000 ) ) ;
#287 = CIRCLE ( 'NONE', #293, 8.000000000000000000 ) ;
#288 = CIRCLE ( 'NONE', #206, 8.000000000000000000 ) ;
#289 = FACE_OUTER_BOUND ( 'NONE', #107, .T. ) ;
#290 = FACE_OUTER_BOUND ( 'NONE', #125, .T. ) ;
#291 = FACE_OUTER_BOUND ( 'NONE', #276, .T. ) ;
#292 = PRODUCT_DEFINITION_FORMATION_WITH_SPECIFIED_SOURCE ( 'LIBOVOLNÝ', '', #94, .NOT_KNOWN. ) ;
#293 = AXIS2_PLACEMENT_3D ( 'NONE', #52, #238, #305 ) ;
#294 = LINE ( 'NONE', #59, #245 ) ;
#295 = DIRECTION ( 'NONE',  ( 1.000000000000000000, 0.000000000000000000, 0.000000000000000000 ) ) ;
#296 = COORDINATED_UNIVERSAL_TIME_OFFSET ( 1, 0, .AHEAD. ) ;
#297 = EDGE_CURVE ( 'NONE', #144, #16, #131, .T. ) ;
#298 = AXIS2_PLACEMENT_3D ( 'NONE', #271, #70, #257 ) ;
#299 = CARTESIAN_POINT ( 'NONE',  ( -8.000000000000000000, 0.000000000000000000, 0.000000000000000000 ) ) ;
#300 = COORDINATED_UNIVERSAL_TIME_OFFSET ( 1, 0, .AHEAD. ) ;
#301 = ORIENTED_EDGE ( 'NONE', *, *, #73, .F. ) ;
#302 = AXIS2_PLACEMENT_3D ( 'NONE', #181, #204, #255 ) ;
#303 = APPLICATION_PROTOCOL_DEFINITION ( 'international standard', 'config_control_design', 1994, #68 ) ;
#304 = ORIENTED_EDGE ( 'NONE', *, *, #297, .F. ) ;
#305 = DIRECTION ( 'NONE',  ( 1.000000000000000000, 0.000000000000000000, 0.000000000000000000 ) ) ;
#306 = VECTOR ( 'NONE', #222, 1000.000000000000000 ) ;
#307 = DIRECTION ( 'NONE',  ( 1.000000000000000000, 0.000000000000000000, 0.000000000000000000 ) ) ;
ENDSEC;
END-ISO-10303-21;
