ISO-10303-21;
HEADER;
FILE_DESCRIPTION (( 'STEP AP203' ),
    '1' );
FILE_NAME ('a598.STEP',
    '2023-02-12T10:46:31',
    ( '' ),
    ( '' ),
    'SwSTEP 2.0',
    'SolidWorks 2019',
    '' );
FILE_SCHEMA (( 'CONFIG_CONTROL_DESIGN' ));
ENDSEC;

DATA;
#1 = VECTOR ( 'NONE', #141, 1000.000000000000000 ) ;
#2 = LOCAL_TIME ( 11, 46, 31.00000000000000000, #218 ) ;
#3 = SHAPE_DEFINITION_REPRESENTATION ( #80, #87 ) ;
#4 = EDGE_LOOP ( 'NONE', ( #220, #154 ) ) ;
#5 = PERSON ( 'NEURÈENÝ', 'NEURÈENÝ', 'NEURÈENÝ', ('NEURÈENÝ'), ('NEURÈENÝ'), ('NEURÈENÝ') ) ;
#6 = ORIENTED_EDGE ( 'NONE', *, *, #195, .T. ) ;
#7 = DIRECTION ( 'NONE',  ( 1.000000000000000000, 0.000000000000000000, -0.000000000000000000 ) ) ;
#8 = AXIS2_PLACEMENT_3D ( 'NONE', #222, #96, #90 ) ;
#9 = ORIENTED_EDGE ( 'NONE', *, *, #226, .F. ) ;
#10 = CC_DESIGN_PERSON_AND_ORGANIZATION_ASSIGNMENT ( #78, #207, ( #158 ) ) ;
#11 = SECURITY_CLASSIFICATION_LEVEL ( 'unclassified' ) ;
#12 = CLOSED_SHELL ( 'NONE', ( #17, #108, #118, #29, #217, #153, #160 ) ) ;
#13 = CYLINDRICAL_SURFACE ( 'NONE', #63, 11.00000000000000000 ) ;
#14 = EDGE_LOOP ( 'NONE', ( #6, #64 ) ) ;
#15 = DIRECTION ( 'NONE',  ( 0.000000000000000000, 0.000000000000000000, 1.000000000000000000 ) ) ;
#16 = CARTESIAN_POINT ( 'NONE',  ( 0.000000000000000000, 0.000000000000000000, 100.0000000000000000 ) ) ;
#17 = ADVANCED_FACE ( 'NONE', ( #212 ), #58, .T. ) ;
#18 = LINE ( 'NONE', #85, #146 ) ;
#19 = CALENDAR_DATE ( 2023, 12, 2 ) ;
#20 = CC_DESIGN_PERSON_AND_ORGANIZATION_ASSIGNMENT ( #28, #185, ( #158 ) ) ;
#21 = LOCAL_TIME ( 11, 46, 31.00000000000000000, #246 ) ;
#22 = CARTESIAN_POINT ( 'NONE',  ( 0.000000000000000000, 0.000000000000000000, 7.000000000000000000 ) ) ;
#23 = EDGE_CURVE ( 'NONE', #52, #225, #161, .T. ) ;
#24 = ORIENTED_EDGE ( 'NONE', *, *, #195, .F. ) ;
#25 = AXIS2_PLACEMENT_3D ( 'NONE', #77, #131, #7 ) ;
#26 = ORIENTED_EDGE ( 'NONE', *, *, #226, .T. ) ;
#27 = PERSON_AND_ORGANIZATION ( #5, #168 ) ;
#28 = PERSON_AND_ORGANIZATION ( #5, #168 ) ;
#29 = ADVANCED_FACE ( 'NONE', ( #62, #248 ), #140, .T. ) ;
#30 = CARTESIAN_POINT ( 'NONE',  ( 0.000000000000000000, 0.000000000000000000, 7.000000000000000000 ) ) ;
#31 = VECTOR ( 'NONE', #156, 1000.000000000000000 ) ;
#32 = CARTESIAN_POINT ( 'NONE',  ( -8.000000000000000000, 0.000000000000000000, 100.0000000000000000 ) ) ;
#33 = CARTESIAN_POINT ( 'NONE',  ( 8.000000000000000000, 9.797174393178823685E-16, 100.0000000000000000 ) ) ;
#34 = EDGE_LOOP ( 'NONE', ( #159, #94, #126, #242 ) ) ;
#35 = CC_DESIGN_DATE_AND_TIME_ASSIGNMENT ( #82, #175, ( #59 ) ) ;
#36 = CALENDAR_DATE ( 2023, 12, 2 ) ;
#37 = CARTESIAN_POINT ( 'NONE',  ( 0.000000000000000000, 0.000000000000000000, 7.000000000000000000 ) ) ;
#38 = VERTEX_POINT ( 'NONE', #193 ) ;
#39 = COORDINATED_UNIVERSAL_TIME_OFFSET ( 1, 0, .AHEAD. ) ;
#40 = DIRECTION ( 'NONE',  ( 1.000000000000000000, 0.000000000000000000, 0.000000000000000000 ) ) ;
#41 = APPLICATION_PROTOCOL_DEFINITION ( 'international standard', 'config_control_design', 1994, #213 ) ;
#42 = DIRECTION ( 'NONE',  ( -1.000000000000000000, 0.000000000000000000, 0.000000000000000000 ) ) ;
#43 = APPROVAL_PERSON_ORGANIZATION ( #223, #231, #97 ) ;
#44 = MECHANICAL_CONTEXT ( 'NONE', #213, 'mechanical' ) ;
#45 = AXIS2_PLACEMENT_3D ( 'NONE', #16, #139, #104 ) ;
#46 = PLANE ( 'NONE',  #192 ) ;
#47 = CALENDAR_DATE ( 2023, 12, 2 ) ;
#48 = APPROVAL_PERSON_ORGANIZATION ( #56, #72, #71 ) ;
#49 = VERTEX_POINT ( 'NONE', #32 ) ;
#50 = CARTESIAN_POINT ( 'NONE',  ( 8.000000000000000000, 9.797174393178823685E-16, 7.000000000000000000 ) ) ;
#51 = DATE_AND_TIME ( #124, #2 ) ;
#52 = VERTEX_POINT ( 'NONE', #117 ) ;
#53 = AXIS2_PLACEMENT_3D ( 'NONE', #73, #149, #152 ) ;
#54 = EDGE_LOOP ( 'NONE', ( #232, #170, #125, #9 ) ) ;
#55 = EDGE_CURVE ( 'NONE', #38, #52, #18, .T. ) ;
#56 = PERSON_AND_ORGANIZATION ( #5, #168 ) ;
#57 = ORIENTED_EDGE ( 'NONE', *, *, #120, .T. ) ;
#58 = CYLINDRICAL_SURFACE ( 'NONE', #45, 8.000000000000000000 ) ;
#59 = SECURITY_CLASSIFICATION ( '', '', #11 ) ;
#60 = CYLINDRICAL_SURFACE ( 'NONE', #100, 11.00000000000000000 ) ;
#61 = EDGE_CURVE ( 'NONE', #240, #202, #138, .T. ) ;
#62 = FACE_BOUND ( 'NONE', #167, .T. ) ;
#63 = AXIS2_PLACEMENT_3D ( 'NONE', #228, #173, #189 ) ;
#64 = ORIENTED_EDGE ( 'NONE', *, *, #111, .T. ) ;
#65 = PRODUCT ( 'a598', 'a598', '', ( #44 ) ) ;
#66 = CC_DESIGN_PERSON_AND_ORGANIZATION_ASSIGNMENT ( #68, #163, ( #65 ) ) ;
#67 = CARTESIAN_POINT ( 'NONE',  ( 0.000000000000000000, 0.000000000000000000, 100.0000000000000000 ) ) ;
#68 = PERSON_AND_ORGANIZATION ( #5, #168 ) ;
#69 = DIRECTION ( 'NONE',  ( -0.000000000000000000, -0.000000000000000000, -1.000000000000000000 ) ) ;
#70 = CARTESIAN_POINT ( 'NONE',  ( -8.000000000000000000, 0.000000000000000000, 7.000000000000000000 ) ) ;
#71 = APPROVAL_ROLE ( '' ) ;
#72 = APPROVAL ( #221, 'NEURÈENÝ' ) ;
#73 = CARTESIAN_POINT ( 'NONE',  ( 0.000000000000000000, 0.000000000000000000, 0.000000000000000000 ) ) ;
#74 =( GEOMETRIC_REPRESENTATION_CONTEXT ( 3 ) GLOBAL_UNCERTAINTY_ASSIGNED_CONTEXT ( ( #241 ) ) GLOBAL_UNIT_ASSIGNED_CONTEXT ( ( #210, #211, #249 ) ) REPRESENTATION_CONTEXT ( 'NONE', 'WORKASPACE' ) );
#75 = DATE_TIME_ROLE ( 'creation_date' ) ;
#76 = ORIENTED_EDGE ( 'NONE', *, *, #55, .T. ) ;
#77 = CARTESIAN_POINT ( 'NONE',  ( 0.000000000000000000, 0.000000000000000000, 100.0000000000000000 ) ) ;
#78 = PERSON_AND_ORGANIZATION ( #5, #168 ) ;
#79 = CC_DESIGN_PERSON_AND_ORGANIZATION_ASSIGNMENT ( #147, #203, ( #172 ) ) ;
#80 = PRODUCT_DEFINITION_SHAPE ( 'NONE', 'NONE',  #172 ) ;
#81 = CARTESIAN_POINT ( 'NONE',  ( -11.00000000000000000, 0.000000000000000000, 7.000000000000000000 ) ) ;
#82 = DATE_AND_TIME ( #36, #21 ) ;
#83 = DIRECTION ( 'NONE',  ( 0.000000000000000000, 0.000000000000000000, 1.000000000000000000 ) ) ;
#84 = LOCAL_TIME ( 11, 46, 31.00000000000000000, #39 ) ;
#85 = CARTESIAN_POINT ( 'NONE',  ( 11.00000000000000000, 1.347111479062088405E-15, 7.000000000000000000 ) ) ;
#86 = APPROVAL ( #98, 'NEURÈENÝ' ) ;
#87 = ADVANCED_BREP_SHAPE_REPRESENTATION ( 'a598', ( #204, #109 ), #74 ) ;
#88 = FACE_OUTER_BOUND ( 'NONE', #113, .T. ) ;
#89 = EDGE_CURVE ( 'NONE', #206, #202, #180, .T. ) ;
#90 = DIRECTION ( 'NONE',  ( 1.000000000000000000, 0.000000000000000000, 0.000000000000000000 ) ) ;
#91 = DIRECTION ( 'NONE',  ( 0.000000000000000000, 0.000000000000000000, 1.000000000000000000 ) ) ;
#92 = EDGE_LOOP ( 'NONE', ( #227, #57 ) ) ;
#93 = APPLICATION_PROTOCOL_DEFINITION ( 'international standard', 'config_control_design', 1994, #237 ) ;
#94 = ORIENTED_EDGE ( 'NONE', *, *, #179, .F. ) ;
#95 = CIRCLE ( 'NONE', #8, 11.00000000000000000 ) ;
#96 = DIRECTION ( 'NONE',  ( 0.000000000000000000, 0.000000000000000000, 1.000000000000000000 ) ) ;
#97 = APPROVAL_ROLE ( '' ) ;
#98 = APPROVAL_STATUS ( 'not_yet_approved' ) ;
#99 = PERSON_AND_ORGANIZATION ( #5, #168 ) ;
#100 = AXIS2_PLACEMENT_3D ( 'NONE', #142, #196, #42 ) ;
#101 = DIRECTION ( 'NONE',  ( 1.000000000000000000, 0.000000000000000000, 0.000000000000000000 ) ) ;
#102 = AXIS2_PLACEMENT_3D ( 'NONE', #22, #181, #40 ) ;
#103 = CIRCLE ( 'NONE', #102, 11.00000000000000000 ) ;
#104 = DIRECTION ( 'NONE',  ( -1.000000000000000000, 0.000000000000000000, 0.000000000000000000 ) ) ;
#105 = DIRECTION ( 'NONE',  ( 0.000000000000000000, 0.000000000000000000, 1.000000000000000000 ) ) ;
#106 = DATE_AND_TIME ( #19, #84 ) ;
#107 = LOCAL_TIME ( 11, 46, 31.00000000000000000, #150 ) ;
#108 = ADVANCED_FACE ( 'NONE', ( #188 ), #13, .T. ) ;
#109 = AXIS2_PLACEMENT_3D ( 'NONE', #174, #105, #215 ) ;
#110 = CARTESIAN_POINT ( 'NONE',  ( 0.000000000000000000, 0.000000000000000000, 100.0000000000000000 ) ) ;
#111 = EDGE_CURVE ( 'NONE', #240, #49, #205, .T. ) ;
#112 = PLANE ( 'NONE',  #25 ) ;
#113 = EDGE_LOOP ( 'NONE', ( #201, #24, #26, #128 ) ) ;
#114 = DATE_AND_TIME ( #243, #247 ) ;
#115 = AXIS2_PLACEMENT_3D ( 'NONE', #176, #15, #157 ) ;
#116 = DIRECTION ( 'NONE',  ( 1.000000000000000000, 0.000000000000000000, 0.000000000000000000 ) ) ;
#117 = CARTESIAN_POINT ( 'NONE',  ( 11.00000000000000000, 1.347111479062088405E-15, 0.000000000000000000 ) ) ;
#118 = ADVANCED_FACE ( 'NONE', ( #230 ), #60, .T. ) ;
#119 = CARTESIAN_POINT ( 'NONE',  ( -8.000000000000000000, 0.000000000000000000, 100.0000000000000000 ) ) ;
#120 = EDGE_CURVE ( 'NONE', #38, #219, #103, .T. ) ;
#121 = DIRECTION ( 'NONE',  ( -0.000000000000000000, -0.000000000000000000, -1.000000000000000000 ) ) ;
#122 = CIRCLE ( 'NONE', #235, 8.000000000000000000 ) ;
#123 = CARTESIAN_POINT ( 'NONE',  ( 0.000000000000000000, 0.000000000000000000, 0.000000000000000000 ) ) ;
#124 = CALENDAR_DATE ( 2023, 12, 2 ) ;
#125 = ORIENTED_EDGE ( 'NONE', *, *, #129, .T. ) ;
#126 = ORIENTED_EDGE ( 'NONE', *, *, #155, .T. ) ;
#127 = APPROVAL_DATE_TIME ( #51, #72 ) ;
#128 = ORIENTED_EDGE ( 'NONE', *, *, #89, .T. ) ;
#129 = EDGE_CURVE ( 'NONE', #202, #206, #122, .T. ) ;
#130 = AXIS2_PLACEMENT_3D ( 'NONE', #110, #91, #239 ) ;
#131 = DIRECTION ( 'NONE',  ( 0.000000000000000000, 0.000000000000000000, 1.000000000000000000 ) ) ;
#132 = COORDINATED_UNIVERSAL_TIME_OFFSET ( 1, 0, .AHEAD. ) ;
#133 = ORIENTED_EDGE ( 'NONE', *, *, #89, .F. ) ;
#134 = CARTESIAN_POINT ( 'NONE',  ( 8.000000000000000000, 9.797174393178823685E-16, 100.0000000000000000 ) ) ;
#135 = AXIS2_PLACEMENT_3D ( 'NONE', #67, #121, #198 ) ;
#136 = DIRECTION ( 'NONE',  ( -0.000000000000000000, -0.000000000000000000, -1.000000000000000000 ) ) ;
#137 = LINE ( 'NONE', #119, #1 ) ;
#138 = LINE ( 'NONE', #134, #31 ) ;
#139 = DIRECTION ( 'NONE',  ( -0.000000000000000000, -0.000000000000000000, -1.000000000000000000 ) ) ;
#140 = PLANE ( 'NONE',  #254 ) ;
#141 = DIRECTION ( 'NONE',  ( -0.000000000000000000, -0.000000000000000000, -1.000000000000000000 ) ) ;
#142 = CARTESIAN_POINT ( 'NONE',  ( 0.000000000000000000, 0.000000000000000000, 7.000000000000000000 ) ) ;
#143 = CYLINDRICAL_SURFACE ( 'NONE', #135, 8.000000000000000000 ) ;
#144 = CC_DESIGN_SECURITY_CLASSIFICATION ( #59, ( #158 ) ) ;
#145 = FACE_OUTER_BOUND ( 'NONE', #4, .T. ) ;
#146 = VECTOR ( 'NONE', #136, 1000.000000000000000 ) ;
#147 = PERSON_AND_ORGANIZATION ( #5, #168 ) ;
#148 = EDGE_LOOP ( 'NONE', ( #151, #76, #166, #244 ) ) ;
#149 = DIRECTION ( 'NONE',  ( 0.000000000000000000, 0.000000000000000000, 1.000000000000000000 ) ) ;
#150 = COORDINATED_UNIVERSAL_TIME_OFFSET ( 1, 0, .AHEAD. ) ;
#151 = ORIENTED_EDGE ( 'NONE', *, *, #120, .F. ) ;
#152 = DIRECTION ( 'NONE',  ( 1.000000000000000000, 0.000000000000000000, 0.000000000000000000 ) ) ;
#153 = ADVANCED_FACE ( 'NONE', ( #88 ), #143, .T. ) ;
#154 = ORIENTED_EDGE ( 'NONE', *, *, #23, .F. ) ;
#155 = EDGE_CURVE ( 'NONE', #219, #225, #162, .T. ) ;
#156 = DIRECTION ( 'NONE',  ( -0.000000000000000000, -0.000000000000000000, -1.000000000000000000 ) ) ;
#157 = DIRECTION ( 'NONE',  ( 1.000000000000000000, 0.000000000000000000, 0.000000000000000000 ) ) ;
#158 = PRODUCT_DEFINITION_FORMATION_WITH_SPECIFIED_SOURCE ( 'LIBOVOLNÝ', '', #65, .NOT_KNOWN. ) ;
#159 = ORIENTED_EDGE ( 'NONE', *, *, #55, .F. ) ;
#160 = ADVANCED_FACE ( 'NONE', ( #200 ), #112, .T. ) ;
#161 = CIRCLE ( 'NONE', #191, 11.00000000000000000 ) ;
#162 = LINE ( 'NONE', #236, #233 ) ;
#163 = PERSON_AND_ORGANIZATION_ROLE ( 'design_owner' ) ;
#164 = CIRCLE ( 'NONE', #53, 11.00000000000000000 ) ;
#165 = DATE_AND_TIME ( #47, #107 ) ;
#166 = ORIENTED_EDGE ( 'NONE', *, *, #23, .T. ) ;
#167 = EDGE_LOOP ( 'NONE', ( #133, #183 ) ) ;
#168 = ORGANIZATION ( 'NEURÈENÝ', 'NEURÈENÝ', '' ) ;
#169 = APPROVAL_STATUS ( 'not_yet_approved' ) ;
#170 = ORIENTED_EDGE ( 'NONE', *, *, #61, .T. ) ;
#171 = PERSON_AND_ORGANIZATION_ROLE ( 'classification_officer' ) ;
#172 = PRODUCT_DEFINITION ( 'NEZNÁMÝ', '', #158, #194 ) ;
#173 = DIRECTION ( 'NONE',  ( -0.000000000000000000, -0.000000000000000000, -1.000000000000000000 ) ) ;
#174 = CARTESIAN_POINT ( 'NONE',  ( 0.000000000000000000, 0.000000000000000000, 0.000000000000000000 ) ) ;
#175 = DATE_TIME_ROLE ( 'classification_date' ) ;
#176 = CARTESIAN_POINT ( 'NONE',  ( 0.000000000000000000, 0.000000000000000000, 100.0000000000000000 ) ) ;
#177 = CC_DESIGN_PERSON_AND_ORGANIZATION_ASSIGNMENT ( #99, #171, ( #59 ) ) ;
#178 = CARTESIAN_POINT ( 'NONE',  ( 0.000000000000000000, 0.000000000000000000, 0.000000000000000000 ) ) ;
#179 = EDGE_CURVE ( 'NONE', #219, #38, #95, .T. ) ;
#180 = CIRCLE ( 'NONE', #245, 8.000000000000000000 ) ;
#181 = DIRECTION ( 'NONE',  ( 0.000000000000000000, 0.000000000000000000, 1.000000000000000000 ) ) ;
#182 = APPROVAL_DATE_TIME ( #114, #231 ) ;
#183 = ORIENTED_EDGE ( 'NONE', *, *, #129, .F. ) ;
#184 = APPROVAL_PERSON_ORGANIZATION ( #27, #86, #238 ) ;
#185 = PERSON_AND_ORGANIZATION_ROLE ( 'design_supplier' ) ;
#186 = CC_DESIGN_DATE_AND_TIME_ASSIGNMENT ( #165, #75, ( #172 ) ) ;
#187 = DIRECTION ( 'NONE',  ( 0.000000000000000000, 0.000000000000000000, 1.000000000000000000 ) ) ;
#188 = FACE_OUTER_BOUND ( 'NONE', #148, .T. ) ;
#189 = DIRECTION ( 'NONE',  ( -1.000000000000000000, 0.000000000000000000, 0.000000000000000000 ) ) ;
#190 = DIRECTION ( 'NONE',  ( 0.000000000000000000, 0.000000000000000000, 1.000000000000000000 ) ) ;
#191 = AXIS2_PLACEMENT_3D ( 'NONE', #178, #190, #101 ) ;
#192 = AXIS2_PLACEMENT_3D ( 'NONE', #123, #187, #208 ) ;
#193 = CARTESIAN_POINT ( 'NONE',  ( 11.00000000000000000, 1.347111479062088405E-15, 7.000000000000000000 ) ) ;
#194 = DESIGN_CONTEXT ( 'detailed design', #237, 'design' ) ;
#195 = EDGE_CURVE ( 'NONE', #49, #240, #224, .T. ) ;
#196 = DIRECTION ( 'NONE',  ( -0.000000000000000000, -0.000000000000000000, -1.000000000000000000 ) ) ;
#197 = CC_DESIGN_APPROVAL ( #231, ( #172 ) ) ;
#198 = DIRECTION ( 'NONE',  ( -1.000000000000000000, 0.000000000000000000, 0.000000000000000000 ) ) ;
#199 = EDGE_CURVE ( 'NONE', #225, #52, #164, .T. ) ;
#200 = FACE_OUTER_BOUND ( 'NONE', #14, .T. ) ;
#201 = ORIENTED_EDGE ( 'NONE', *, *, #61, .F. ) ;
#202 = VERTEX_POINT ( 'NONE', #50 ) ;
#203 = PERSON_AND_ORGANIZATION_ROLE ( 'creator' ) ;
#204 = MANIFOLD_SOLID_BREP ( 'Pøidat vysunutím3', #12 ) ;
#205 = CIRCLE ( 'NONE', #115, 8.000000000000000000 ) ;
#206 = VERTEX_POINT ( 'NONE', #70 ) ;
#207 = PERSON_AND_ORGANIZATION_ROLE ( 'creator' ) ;
#208 = DIRECTION ( 'NONE',  ( 1.000000000000000000, 0.000000000000000000, -0.000000000000000000 ) ) ;
#209 = DIRECTION ( 'NONE',  ( 0.000000000000000000, 0.000000000000000000, 1.000000000000000000 ) ) ;
#210 =( LENGTH_UNIT ( ) NAMED_UNIT ( * ) SI_UNIT ( .MILLI., .METRE. ) );
#211 =( NAMED_UNIT ( * ) PLANE_ANGLE_UNIT ( ) SI_UNIT ( $, .RADIAN. ) );
#212 = FACE_OUTER_BOUND ( 'NONE', #54, .T. ) ;
#213 = APPLICATION_CONTEXT ( 'configuration controlled 3d designs of mechanical parts and assemblies' ) ;
#214 = PRODUCT_RELATED_PRODUCT_CATEGORY ( 'detail', '', ( #65 ) ) ;
#215 = DIRECTION ( 'NONE',  ( 1.000000000000000000, 0.000000000000000000, 0.000000000000000000 ) ) ;
#216 = CC_DESIGN_APPROVAL ( #72, ( #158 ) ) ;
#217 = ADVANCED_FACE ( 'NONE', ( #145 ), #46, .F. ) ;
#218 = COORDINATED_UNIVERSAL_TIME_OFFSET ( 1, 0, .AHEAD. ) ;
#219 = VERTEX_POINT ( 'NONE', #81 ) ;
#220 = ORIENTED_EDGE ( 'NONE', *, *, #199, .F. ) ;
#221 = APPROVAL_STATUS ( 'not_yet_approved' ) ;
#222 = CARTESIAN_POINT ( 'NONE',  ( 0.000000000000000000, 0.000000000000000000, 7.000000000000000000 ) ) ;
#223 = PERSON_AND_ORGANIZATION ( #5, #168 ) ;
#224 = CIRCLE ( 'NONE', #130, 8.000000000000000000 ) ;
#225 = VERTEX_POINT ( 'NONE', #251 ) ;
#226 = EDGE_CURVE ( 'NONE', #49, #206, #137, .T. ) ;
#227 = ORIENTED_EDGE ( 'NONE', *, *, #179, .T. ) ;
#228 = CARTESIAN_POINT ( 'NONE',  ( 0.000000000000000000, 0.000000000000000000, 7.000000000000000000 ) ) ;
#229 = DIRECTION ( 'NONE',  ( 1.000000000000000000, 0.000000000000000000, -0.000000000000000000 ) ) ;
#230 = FACE_OUTER_BOUND ( 'NONE', #34, .T. ) ;
#231 = APPROVAL ( #169, 'NEURÈENÝ' ) ;
#232 = ORIENTED_EDGE ( 'NONE', *, *, #111, .F. ) ;
#233 = VECTOR ( 'NONE', #69, 1000.000000000000000 ) ;
#234 = DIRECTION ( 'NONE',  ( 0.000000000000000000, 0.000000000000000000, 1.000000000000000000 ) ) ;
#235 = AXIS2_PLACEMENT_3D ( 'NONE', #253, #234, #255 ) ;
#236 = CARTESIAN_POINT ( 'NONE',  ( -11.00000000000000000, 0.000000000000000000, 7.000000000000000000 ) ) ;
#237 = APPLICATION_CONTEXT ( 'configuration controlled 3d designs of mechanical parts and assemblies' ) ;
#238 = APPROVAL_ROLE ( '' ) ;
#239 = DIRECTION ( 'NONE',  ( 1.000000000000000000, 0.000000000000000000, 0.000000000000000000 ) ) ;
#240 = VERTEX_POINT ( 'NONE', #33 ) ;
#241 = UNCERTAINTY_MEASURE_WITH_UNIT (LENGTH_MEASURE( 1.000000000000000082E-05 ), #210, 'distance_accuracy_value', 'NONE');
#242 = ORIENTED_EDGE ( 'NONE', *, *, #199, .T. ) ;
#243 = CALENDAR_DATE ( 2023, 12, 2 ) ;
#244 = ORIENTED_EDGE ( 'NONE', *, *, #155, .F. ) ;
#245 = AXIS2_PLACEMENT_3D ( 'NONE', #30, #209, #116 ) ;
#246 = COORDINATED_UNIVERSAL_TIME_OFFSET ( 1, 0, .AHEAD. ) ;
#247 = LOCAL_TIME ( 11, 46, 31.00000000000000000, #132 ) ;
#248 = FACE_OUTER_BOUND ( 'NONE', #92, .T. ) ;
#249 =( NAMED_UNIT ( * ) SI_UNIT ( $, .STERADIAN. ) SOLID_ANGLE_UNIT ( ) );
#250 = CC_DESIGN_APPROVAL ( #86, ( #59 ) ) ;
#251 = CARTESIAN_POINT ( 'NONE',  ( -11.00000000000000000, 0.000000000000000000, 0.000000000000000000 ) ) ;
#252 = APPROVAL_DATE_TIME ( #106, #86 ) ;
#253 = CARTESIAN_POINT ( 'NONE',  ( 0.000000000000000000, 0.000000000000000000, 7.000000000000000000 ) ) ;
#254 = AXIS2_PLACEMENT_3D ( 'NONE', #37, #83, #229 ) ;
#255 = DIRECTION ( 'NONE',  ( 1.000000000000000000, 0.000000000000000000, 0.000000000000000000 ) ) ;
ENDSEC;
END-ISO-10303-21;
