ISO-10303-21;
HEADER;
FILE_DESCRIPTION (( 'STEP AP203' ),
    '1' );
FILE_NAME ('bcf2.STEP',
    '2022-07-07T12:58:59',
    ( '' ),
    ( '' ),
    'SwSTEP 2.0',
    'SolidWorks 2019',
    '' );
FILE_SCHEMA (( 'CONFIG_CONTROL_DESIGN' ));
ENDSEC;

DATA;
#1 = CC_DESIGN_PERSON_AND_ORGANIZATION_ASSIGNMENT ( #135, #186, ( #215 ) ) ;
#2 = DIRECTION ( 'NONE',  ( 1.000000000000000000, 0.000000000000000000, 0.000000000000000000 ) ) ;
#3 = AXIS2_PLACEMENT_3D ( 'NONE', #16, #105, #77 ) ;
#4 = DIRECTION ( 'NONE',  ( 0.000000000000000000, -1.000000000000000000, 0.000000000000000000 ) ) ;
#5 = CIRCLE ( 'NONE', #29, 1.200000000000000178 ) ;
#6 = ORIENTED_EDGE ( 'NONE', *, *, #222, .F. ) ;
#7 = EDGE_LOOP ( 'NONE', ( #147, #245, #144, #221 ) ) ;
#8 = CIRCLE ( 'NONE', #107, 1.200000000000000178 ) ;
#9 = CALENDAR_DATE ( 2022, 7, 7 ) ;
#10 = ORIENTED_EDGE ( 'NONE', *, *, #82, .T. ) ;
#11 = APPROVAL_DATE_TIME ( #44, #80 ) ;
#12 = PLANE ( 'NONE',  #155 ) ;
#13 = CYLINDRICAL_SURFACE ( 'NONE', #230, 1.000000000000000000 ) ;
#14 = COORDINATED_UNIVERSAL_TIME_OFFSET ( 1, 0, .AHEAD. ) ;
#15 = CARTESIAN_POINT ( 'NONE',  ( 0.000000000000000000, 0.000000000000000000, 2.000000000000000000 ) ) ;
#16 = CARTESIAN_POINT ( 'NONE',  ( 0.000000000000000000, 0.000000000000000000, 2.199999999999993516 ) ) ;
#17 = CARTESIAN_POINT ( 'NONE',  ( 2.000000000000000000, 2.449293598294706414E-16, 2.000000000000000000 ) ) ;
#18 = CARTESIAN_POINT ( 'NONE',  ( -1.000000000000000000, 0.000000000000000000, 127.0000000000000000 ) ) ;
#19 = UNCERTAINTY_MEASURE_WITH_UNIT (LENGTH_MEASURE( 1.000000000000000082E-05 ), #263, 'distance_accuracy_value', 'NONE');
#20 = CARTESIAN_POINT ( 'NONE',  ( 0.000000000000000000, 0.000000000000000000, 2.000000000000000000 ) ) ;
#21 = DIRECTION ( 'NONE',  ( 1.000000000000000000, 0.000000000000000000, 0.000000000000000000 ) ) ;
#22 = DIRECTION ( 'NONE',  ( 1.000000000000000000, 0.000000000000000000, 0.000000000000000000 ) ) ;
#23 = CIRCLE ( 'NONE', #240, 2.000000000000000000 ) ;
#24 = CARTESIAN_POINT ( 'NONE',  ( 1.000000000000000000, 1.224646799147353207E-16, 127.0000000000000000 ) ) ;
#25 = ORIENTED_EDGE ( 'NONE', *, *, #248, .T. ) ;
#26 = EDGE_LOOP ( 'NONE', ( #121, #299 ) ) ;
#27 = VERTEX_POINT ( 'NONE', #252 ) ;
#28 = ADVANCED_FACE ( 'NONE', ( #31 ), #12, .F. ) ;
#29 = AXIS2_PLACEMENT_3D ( 'NONE', #182, #275, #38 ) ;
#30 = CALENDAR_DATE ( 2022, 7, 7 ) ;
#31 = FACE_OUTER_BOUND ( 'NONE', #45, .T. ) ;
#32 = APPROVAL_STATUS ( 'not_yet_approved' ) ;
#33 = CC_DESIGN_PERSON_AND_ORGANIZATION_ASSIGNMENT ( #126, #273, ( #70 ) ) ;
#34 = DIRECTION ( 'NONE',  ( 1.000000000000000000, 0.000000000000000000, 0.000000000000000000 ) ) ;
#35 = PLANE ( 'NONE',  #237 ) ;
#36 = CC_DESIGN_PERSON_AND_ORGANIZATION_ASSIGNMENT ( #296, #164, ( #212 ) ) ;
#37 = VECTOR ( 'NONE', #156, 1000.000000000000000 ) ;
#38 = DIRECTION ( 'NONE',  ( 1.000000000000000000, 0.000000000000000000, 0.000000000000000000 ) ) ;
#39 = DIRECTION ( 'NONE',  ( -1.000000000000000000, 0.000000000000000000, 0.000000000000000000 ) ) ;
#40 = CYLINDRICAL_SURFACE ( 'NONE', #51, 1.000000000000000000 ) ;
#41 =( NAMED_UNIT ( * ) SI_UNIT ( $, .STERADIAN. ) SOLID_ANGLE_UNIT ( ) );
#42 = CC_DESIGN_APPROVAL ( #256, ( #212 ) ) ;
#43 = TOROIDAL_SURFACE ( 'NONE', #3, 1.200000000000000178, 0.2000000000000000111 ) ;
#44 = DATE_AND_TIME ( #9, #258 ) ;
#45 = EDGE_LOOP ( 'NONE', ( #175, #6 ) ) ;
#46 = EDGE_CURVE ( 'NONE', #74, #272, #178, .T. ) ;
#47 = EDGE_LOOP ( 'NONE', ( #219, #10 ) ) ;
#48 = DATE_AND_TIME ( #301, #62 ) ;
#49 = ORIENTED_EDGE ( 'NONE', *, *, #254, .F. ) ;
#50 = LOCAL_TIME ( 14, 58, 59.00000000000000000, #118 ) ;
#51 = AXIS2_PLACEMENT_3D ( 'NONE', #59, #304, #202 ) ;
#52 = ORIENTED_EDGE ( 'NONE', *, *, #287, .F. ) ;
#53 = DATE_AND_TIME ( #226, #50 ) ;
#54 = DIRECTION ( 'NONE',  ( -0.000000000000000000, -0.000000000000000000, -1.000000000000000000 ) ) ;
#55 = APPROVAL_ROLE ( '' ) ;
#56 = CARTESIAN_POINT ( 'NONE',  ( 0.000000000000000000, 0.000000000000000000, 127.0000000000000000 ) ) ;
#57 = AXIS2_PLACEMENT_3D ( 'NONE', #264, #4, #63 ) ;
#58 = AXIS2_PLACEMENT_3D ( 'NONE', #136, #286, #117 ) ;
#59 = CARTESIAN_POINT ( 'NONE',  ( 0.000000000000000000, 0.000000000000000000, 127.0000000000000000 ) ) ;
#60 = CARTESIAN_POINT ( 'NONE',  ( 1.000000000000000000, 1.224646799147353207E-16, 127.0000000000000000 ) ) ;
#61 = DIRECTION ( 'NONE',  ( -1.000000000000000000, 1.224646799147351975E-16, 0.000000000000000000 ) ) ;
#62 = LOCAL_TIME ( 14, 58, 59.00000000000000000, #243 ) ;
#63 = DIRECTION ( 'NONE',  ( 0.000000000000000000, 0.000000000000000000, -1.000000000000000000 ) ) ;
#64 = DIRECTION ( 'NONE',  ( 1.224646799147353207E-16, 1.000000000000000000, -0.000000000000000000 ) ) ;
#65 = CARTESIAN_POINT ( 'NONE',  ( -1.200000000000000178, 1.469576158976823799E-16, 2.199999999999993516 ) ) ;
#66 = LOCAL_TIME ( 14, 58, 59.00000000000000000, #78 ) ;
#67 = APPLICATION_PROTOCOL_DEFINITION ( 'international standard', 'config_control_design', 1994, #183 ) ;
#68 = CALENDAR_DATE ( 2022, 7, 7 ) ;
#69 = EDGE_LOOP ( 'NONE', ( #244, #172, #269, #52 ) ) ;
#70 = SECURITY_CLASSIFICATION ( '', '', #224 ) ;
#71 = VERTEX_POINT ( 'NONE', #235 ) ;
#72 = CIRCLE ( 'NONE', #176, 1.000000000000000000 ) ;
#73 = PERSON_AND_ORGANIZATION ( #192, #289 ) ;
#74 = VERTEX_POINT ( 'NONE', #109 ) ;
#75 = VERTEX_POINT ( 'NONE', #18 ) ;
#76 = DATE_AND_TIME ( #30, #89 ) ;
#77 = DIRECTION ( 'NONE',  ( 1.000000000000000000, 0.000000000000000000, 0.000000000000000000 ) ) ;
#78 = COORDINATED_UNIVERSAL_TIME_OFFSET ( 1, 0, .AHEAD. ) ;
#79 = CARTESIAN_POINT ( 'NONE',  ( 0.000000000000000000, 0.000000000000000000, 127.0000000000000000 ) ) ;
#80 = APPROVAL ( #171, 'NEURÈENÝ' ) ;
#81 = CARTESIAN_POINT ( 'NONE',  ( 1.200000000000000178, 0.000000000000000000, 1.999999999999996669 ) ) ;
#82 = EDGE_CURVE ( 'NONE', #119, #169, #5, .T. ) ;
#83 = FACE_BOUND ( 'NONE', #47, .T. ) ;
#84 = CARTESIAN_POINT ( 'NONE',  ( 0.000000000000000000, 0.000000000000000000, 0.000000000000000000 ) ) ;
#85 = CIRCLE ( 'NONE', #305, 2.000000000000000000 ) ;
#86 = CARTESIAN_POINT ( 'NONE',  ( -2.000000000000000000, 0.000000000000000000, 0.000000000000000000 ) ) ;
#87 = DIRECTION ( 'NONE',  ( 0.000000000000000000, 0.000000000000000000, 1.000000000000000000 ) ) ;
#88 = LINE ( 'NONE', #238, #139 ) ;
#89 = LOCAL_TIME ( 14, 58, 59.00000000000000000, #271 ) ;
#90 = CIRCLE ( 'NONE', #213, 2.000000000000000000 ) ;
#91 = CC_DESIGN_DATE_AND_TIME_ASSIGNMENT ( #53, #231, ( #174 ) ) ;
#92 = ORIENTED_EDGE ( 'NONE', *, *, #298, .T. ) ;
#93 = EDGE_LOOP ( 'NONE', ( #295, #49, #223, #98 ) ) ;
#94 = APPROVAL_PERSON_ORGANIZATION ( #153, #256, #257 ) ;
#95 = ORIENTED_EDGE ( 'NONE', *, *, #267, .F. ) ;
#96 = CIRCLE ( 'NONE', #280, 0.2000000000000000944 ) ;
#97 = PERSON_AND_ORGANIZATION_ROLE ( 'design_supplier' ) ;
#98 = ORIENTED_EDGE ( 'NONE', *, *, #138, .T. ) ;
#99 = DATE_AND_TIME ( #68, #66 ) ;
#100 = CARTESIAN_POINT ( 'NONE',  ( 0.000000000000000000, 0.000000000000000000, 0.000000000000000000 ) ) ;
#101 = DIRECTION ( 'NONE',  ( -0.000000000000000000, -0.000000000000000000, -1.000000000000000000 ) ) ;
#102 = CIRCLE ( 'NONE', #190, 1.000000000000000000 ) ;
#103 = CARTESIAN_POINT ( 'NONE',  ( 0.000000000000000000, 0.000000000000000000, 2.000000000000000000 ) ) ;
#104 = APPROVAL_DATE_TIME ( #99, #256 ) ;
#105 = DIRECTION ( 'NONE',  ( 0.000000000000000000, 0.000000000000000000, 1.000000000000000000 ) ) ;
#106 = CARTESIAN_POINT ( 'NONE',  ( -1.200000000000000178, 1.469576158976823799E-16, 1.999999999999996669 ) ) ;
#107 = AXIS2_PLACEMENT_3D ( 'NONE', #161, #216, #114 ) ;
#108 = AXIS2_PLACEMENT_3D ( 'NONE', #204, #179, #127 ) ;
#109 = CARTESIAN_POINT ( 'NONE',  ( 2.000000000000000000, 2.449293598294706414E-16, 2.000000000000000000 ) ) ;
#110 = DIRECTION ( 'NONE',  ( 0.000000000000000000, 0.000000000000000000, 1.000000000000000000 ) ) ;
#111 = EDGE_CURVE ( 'NONE', #75, #71, #158, .T. ) ;
#112 = DIRECTION ( 'NONE',  ( 1.000000000000000000, 0.000000000000000000, 0.000000000000000000 ) ) ;
#113 = CIRCLE ( 'NONE', #58, 2.000000000000000000 ) ;
#114 = DIRECTION ( 'NONE',  ( 1.000000000000000000, 0.000000000000000000, 0.000000000000000000 ) ) ;
#115 = DIRECTION ( 'NONE',  ( 0.000000000000000000, 0.000000000000000000, 1.000000000000000000 ) ) ;
#116 = EDGE_CURVE ( 'NONE', #125, #75, #294, .T. ) ;
#117 = DIRECTION ( 'NONE',  ( 1.000000000000000000, 0.000000000000000000, 0.000000000000000000 ) ) ;
#118 = COORDINATED_UNIVERSAL_TIME_OFFSET ( 1, 0, .AHEAD. ) ;
#119 = VERTEX_POINT ( 'NONE', #106 ) ;
#120 = ADVANCED_FACE ( 'NONE', ( #177 ), #203, .F. ) ;
#121 = ORIENTED_EDGE ( 'NONE', *, *, #290, .T. ) ;
#122 = ORIENTED_EDGE ( 'NONE', *, *, #248, .F. ) ;
#123 = EDGE_LOOP ( 'NONE', ( #122, #142, #247, #166 ) ) ;
#124 = CLOSED_SHELL ( 'NONE', ( #141, #131, #206, #146, #188, #28, #165, #193, #120 ) ) ;
#125 = VERTEX_POINT ( 'NONE', #60 ) ;
#126 = PERSON_AND_ORGANIZATION ( #192, #289 ) ;
#127 = DIRECTION ( 'NONE',  ( 1.000000000000000000, 0.000000000000000000, 0.000000000000000000 ) ) ;
#128 = DIRECTION ( 'NONE',  ( 0.000000000000000000, 0.000000000000000000, 1.000000000000000000 ) ) ;
#129 = CIRCLE ( 'NONE', #57, 0.2000000000000000944 ) ;
#130 = VECTOR ( 'NONE', #303, 1000.000000000000000 ) ;
#131 = ADVANCED_FACE ( 'NONE', ( #228 ), #13, .T. ) ;
#132 = CARTESIAN_POINT ( 'NONE',  ( 0.000000000000000000, 0.000000000000000000, 127.0000000000000000 ) ) ;
#133 = CARTESIAN_POINT ( 'NONE',  ( 0.000000000000000000, 0.000000000000000000, 2.000000000000000000 ) ) ;
#134 = DIRECTION ( 'NONE',  ( 1.000000000000000000, 0.000000000000000000, -0.000000000000000000 ) ) ;
#135 = PERSON_AND_ORGANIZATION ( #192, #289 ) ;
#136 = CARTESIAN_POINT ( 'NONE',  ( 0.000000000000000000, 0.000000000000000000, 2.000000000000000000 ) ) ;
#137 = CC_DESIGN_SECURITY_CLASSIFICATION ( #70, ( #212 ) ) ;
#138 = EDGE_CURVE ( 'NONE', #270, #272, #85, .T. ) ;
#139 = VECTOR ( 'NONE', #307, 1000.000000000000000 ) ;
#140 = PRODUCT_DEFINITION_SHAPE ( 'NONE', 'NONE',  #174 ) ;
#141 = ADVANCED_FACE ( 'NONE', ( #207 ), #43, .F. ) ;
#142 = ORIENTED_EDGE ( 'NONE', *, *, #290, .F. ) ;
#143 = ORIENTED_EDGE ( 'NONE', *, *, #116, .F. ) ;
#144 = ORIENTED_EDGE ( 'NONE', *, *, #287, .T. ) ;
#145 = APPROVAL_STATUS ( 'not_yet_approved' ) ;
#146 = ADVANCED_FACE ( 'NONE', ( #276 ), #261, .T. ) ;
#147 = ORIENTED_EDGE ( 'NONE', *, *, #277, .F. ) ;
#148 = PERSON_AND_ORGANIZATION_ROLE ( 'creator' ) ;
#149 = CC_DESIGN_PERSON_AND_ORGANIZATION_ASSIGNMENT ( #73, #148, ( #174 ) ) ;
#150 = PLANE ( 'NONE',  #168 ) ;
#151 = SHAPE_DEFINITION_REPRESENTATION ( #140, #220 ) ;
#152 = DIRECTION ( 'NONE',  ( 1.000000000000000000, 0.000000000000000000, -0.000000000000000000 ) ) ;
#153 = PERSON_AND_ORGANIZATION ( #192, #289 ) ;
#154 = DIRECTION ( 'NONE',  ( -1.000000000000000000, 0.000000000000000000, 0.000000000000000000 ) ) ;
#155 = AXIS2_PLACEMENT_3D ( 'NONE', #100, #259, #152 ) ;
#156 = DIRECTION ( 'NONE',  ( -0.000000000000000000, -0.000000000000000000, -1.000000000000000000 ) ) ;
#157 = DESIGN_CONTEXT ( 'detailed design', #199, 'design' ) ;
#158 = LINE ( 'NONE', #253, #37 ) ;
#159 = LINE ( 'NONE', #24, #260 ) ;
#160 = DIRECTION ( 'NONE',  ( 0.000000000000000000, 0.000000000000000000, 1.000000000000000000 ) ) ;
#161 = CARTESIAN_POINT ( 'NONE',  ( 0.000000000000000000, 0.000000000000000000, 2.000000000000000000 ) ) ;
#162 = CARTESIAN_POINT ( 'NONE',  ( 1.000000000000000000, 1.224646799147353207E-16, 2.199999999999993516 ) ) ;
#163 = DIRECTION ( 'NONE',  ( 1.000000000000000000, 0.000000000000000000, 0.000000000000000000 ) ) ;
#164 = PERSON_AND_ORGANIZATION_ROLE ( 'creator' ) ;
#165 = ADVANCED_FACE ( 'NONE', ( #255 ), #40, .T. ) ;
#166 = ORIENTED_EDGE ( 'NONE', *, *, #232, .T. ) ;
#167 = AXIS2_PLACEMENT_3D ( 'NONE', #241, #214, #112 ) ;
#168 = AXIS2_PLACEMENT_3D ( 'NONE', #56, #262, #134 ) ;
#169 = VERTEX_POINT ( 'NONE', #81 ) ;
#170 = ORIENTED_EDGE ( 'NONE', *, *, #46, .T. ) ;
#171 = APPROVAL_STATUS ( 'not_yet_approved' ) ;
#172 = ORIENTED_EDGE ( 'NONE', *, *, #277, .T. ) ;
#173 = PERSON_AND_ORGANIZATION ( #192, #289 ) ;
#174 = PRODUCT_DEFINITION ( 'NEZNÁMÝ', '', #212, #157 ) ;
#175 = ORIENTED_EDGE ( 'NONE', *, *, #138, .F. ) ;
#176 = AXIS2_PLACEMENT_3D ( 'NONE', #284, #160, #163 ) ;
#177 = FACE_OUTER_BOUND ( 'NONE', #7, .T. ) ;
#178 = LINE ( 'NONE', #17, #130 ) ;
#179 = DIRECTION ( 'NONE',  ( 0.000000000000000000, 0.000000000000000000, 1.000000000000000000 ) ) ;
#180 = AXIS2_PLACEMENT_3D ( 'NONE', #84, #87, #21 ) ;
#181 = DIRECTION ( 'NONE',  ( 0.000000000000000000, 0.000000000000000000, 1.000000000000000000 ) ) ;
#182 = CARTESIAN_POINT ( 'NONE',  ( 0.000000000000000000, 0.000000000000000000, 2.000000000000000000 ) ) ;
#183 = APPLICATION_CONTEXT ( 'configuration controlled 3d designs of mechanical parts and assemblies' ) ;
#184 = PERSON_AND_ORGANIZATION ( #192, #289 ) ;
#185 = AXIS2_PLACEMENT_3D ( 'NONE', #79, #233, #34 ) ;
#186 = PERSON_AND_ORGANIZATION_ROLE ( 'design_owner' ) ;
#187 = DIRECTION ( 'NONE',  ( -0.000000000000000000, -0.000000000000000000, -1.000000000000000000 ) ) ;
#188 = ADVANCED_FACE ( 'NONE', ( #83, #282 ), #35, .T. ) ;
#189 =( NAMED_UNIT ( * ) PLANE_ANGLE_UNIT ( ) SI_UNIT ( $, .RADIAN. ) );
#190 = AXIS2_PLACEMENT_3D ( 'NONE', #211, #110, #265 ) ;
#191 = AXIS2_PLACEMENT_3D ( 'NONE', #15, #54, #39 ) ;
#192 = PERSON ( 'NEURÈENÝ', 'NEURÈENÝ', 'NEURÈENÝ', ('NEURÈENÝ'), ('NEURÈENÝ'), ('NEURÈENÝ') ) ;
#193 = ADVANCED_FACE ( 'NONE', ( #306 ), #150, .T. ) ;
#194 = ORIENTED_EDGE ( 'NONE', *, *, #111, .F. ) ;
#195 = ORIENTED_EDGE ( 'NONE', *, *, #267, .T. ) ;
#196 = APPROVAL_ROLE ( '' ) ;
#197 = EDGE_LOOP ( 'NONE', ( #249, #195 ) ) ;
#198 = PERSON_AND_ORGANIZATION ( #192, #289 ) ;
#199 = APPLICATION_CONTEXT ( 'configuration controlled 3d designs of mechanical parts and assemblies' ) ;
#200 = DIRECTION ( 'NONE',  ( -1.000000000000000000, 0.000000000000000000, 0.000000000000000000 ) ) ;
#201 = DIRECTION ( 'NONE',  ( 1.000000000000000000, 0.000000000000000000, 0.000000000000000000 ) ) ;
#202 = DIRECTION ( 'NONE',  ( -1.000000000000000000, 0.000000000000000000, 0.000000000000000000 ) ) ;
#203 = TOROIDAL_SURFACE ( 'NONE', #108, 1.200000000000000178, 0.2000000000000000111 ) ;
#204 = CARTESIAN_POINT ( 'NONE',  ( 0.000000000000000000, 0.000000000000000000, 2.199999999999993516 ) ) ;
#205 = CIRCLE ( 'NONE', #167, 1.000000000000000000 ) ;
#206 = ADVANCED_FACE ( 'NONE', ( #236 ), #229, .T. ) ;
#207 = FACE_OUTER_BOUND ( 'NONE', #69, .T. ) ;
#208 = APPROVAL ( #32, 'NEURÈENÝ' ) ;
#209 = MANIFOLD_SOLID_BREP ( 'Zaoblit1', #124 ) ;
#210 = APPLICATION_PROTOCOL_DEFINITION ( 'international standard', 'config_control_design', 1994, #199 ) ;
#211 = CARTESIAN_POINT ( 'NONE',  ( 0.000000000000000000, 0.000000000000000000, 2.199999999999993516 ) ) ;
#212 = PRODUCT_DEFINITION_FORMATION_WITH_SPECIFIED_SOURCE ( 'LIBOVOLNÝ', '', #215, .NOT_KNOWN. ) ;
#213 = AXIS2_PLACEMENT_3D ( 'NONE', #285, #115, #22 ) ;
#214 = DIRECTION ( 'NONE',  ( 0.000000000000000000, 0.000000000000000000, 1.000000000000000000 ) ) ;
#215 = PRODUCT ( 'bcf2', 'bcf2', '', ( #242 ) ) ;
#216 = DIRECTION ( 'NONE',  ( -0.000000000000000000, -0.000000000000000000, -1.000000000000000000 ) ) ;
#217 = DIRECTION ( 'NONE',  ( 0.000000000000000000, 0.000000000000000000, 1.000000000000000000 ) ) ;
#218 = CC_DESIGN_APPROVAL ( #208, ( #174 ) ) ;
#219 = ORIENTED_EDGE ( 'NONE', *, *, #283, .T. ) ;
#220 = ADVANCED_BREP_SHAPE_REPRESENTATION ( 'bcf2', ( #209, #180 ), #239 ) ;
#221 = ORIENTED_EDGE ( 'NONE', *, *, #82, .F. ) ;
#222 = EDGE_CURVE ( 'NONE', #272, #270, #90, .T. ) ;
#223 = ORIENTED_EDGE ( 'NONE', *, *, #246, .T. ) ;
#224 = SECURITY_CLASSIFICATION_LEVEL ( 'unclassified' ) ;
#225 = ORIENTED_EDGE ( 'NONE', *, *, #246, .F. ) ;
#226 = CALENDAR_DATE ( 2022, 7, 7 ) ;
#227 = EDGE_LOOP ( 'NONE', ( #143, #25, #92, #194 ) ) ;
#228 = FACE_OUTER_BOUND ( 'NONE', #227, .T. ) ;
#229 = CYLINDRICAL_SURFACE ( 'NONE', #266, 2.000000000000000000 ) ;
#230 = AXIS2_PLACEMENT_3D ( 'NONE', #132, #101, #200 ) ;
#231 = DATE_TIME_ROLE ( 'creation_date' ) ;
#232 = EDGE_CURVE ( 'NONE', #71, #292, #72, .T. ) ;
#233 = DIRECTION ( 'NONE',  ( 0.000000000000000000, 0.000000000000000000, 1.000000000000000000 ) ) ;
#234 = PRODUCT_RELATED_PRODUCT_CATEGORY ( 'detail', '', ( #215 ) ) ;
#235 = CARTESIAN_POINT ( 'NONE',  ( -1.000000000000000000, 0.000000000000000000, 2.199999999999993516 ) ) ;
#236 = FACE_OUTER_BOUND ( 'NONE', #297, .T. ) ;
#237 = AXIS2_PLACEMENT_3D ( 'NONE', #133, #181, #281 ) ;
#238 = CARTESIAN_POINT ( 'NONE',  ( -2.000000000000000000, 0.000000000000000000, 2.000000000000000000 ) ) ;
#239 =( GEOMETRIC_REPRESENTATION_CONTEXT ( 3 ) GLOBAL_UNCERTAINTY_ASSIGNED_CONTEXT ( ( #19 ) ) GLOBAL_UNIT_ASSIGNED_CONTEXT ( ( #263, #189, #41 ) ) REPRESENTATION_CONTEXT ( 'NONE', 'WORKASPACE' ) );
#240 = AXIS2_PLACEMENT_3D ( 'NONE', #20, #217, #2 ) ;
#241 = CARTESIAN_POINT ( 'NONE',  ( 0.000000000000000000, 0.000000000000000000, 127.0000000000000000 ) ) ;
#242 = MECHANICAL_CONTEXT ( 'NONE', #183, 'mechanical' ) ;
#243 = COORDINATED_UNIVERSAL_TIME_OFFSET ( 1, 0, .AHEAD. ) ;
#244 = ORIENTED_EDGE ( 'NONE', *, *, #232, .F. ) ;
#245 = ORIENTED_EDGE ( 'NONE', *, *, #298, .F. ) ;
#246 = EDGE_CURVE ( 'NONE', #27, #270, #88, .T. ) ;
#247 = ORIENTED_EDGE ( 'NONE', *, *, #111, .T. ) ;
#248 = EDGE_CURVE ( 'NONE', #125, #292, #159, .T. ) ;
#249 = ORIENTED_EDGE ( 'NONE', *, *, #254, .T. ) ;
#250 = DATE_TIME_ROLE ( 'classification_date' ) ;
#251 = CC_DESIGN_PERSON_AND_ORGANIZATION_ASSIGNMENT ( #173, #97, ( #212 ) ) ;
#252 = CARTESIAN_POINT ( 'NONE',  ( -2.000000000000000000, 0.000000000000000000, 2.000000000000000000 ) ) ;
#253 = CARTESIAN_POINT ( 'NONE',  ( -1.000000000000000000, 0.000000000000000000, 127.0000000000000000 ) ) ;
#254 = EDGE_CURVE ( 'NONE', #27, #74, #113, .T. ) ;
#255 = FACE_OUTER_BOUND ( 'NONE', #123, .T. ) ;
#256 = APPROVAL ( #145, 'NEURÈENÝ' ) ;
#257 = APPROVAL_ROLE ( '' ) ;
#258 = LOCAL_TIME ( 14, 58, 59.00000000000000000, #14 ) ;
#259 = DIRECTION ( 'NONE',  ( 0.000000000000000000, 0.000000000000000000, 1.000000000000000000 ) ) ;
#260 = VECTOR ( 'NONE', #187, 1000.000000000000000 ) ;
#261 = CYLINDRICAL_SURFACE ( 'NONE', #191, 2.000000000000000000 ) ;
#262 = DIRECTION ( 'NONE',  ( 0.000000000000000000, 0.000000000000000000, 1.000000000000000000 ) ) ;
#263 =( LENGTH_UNIT ( ) NAMED_UNIT ( * ) SI_UNIT ( .MILLI., .METRE. ) );
#264 = CARTESIAN_POINT ( 'NONE',  ( 1.200000000000000178, 0.000000000000000000, 2.199999999999993516 ) ) ;
#265 = DIRECTION ( 'NONE',  ( 1.000000000000000000, 0.000000000000000000, 0.000000000000000000 ) ) ;
#266 = AXIS2_PLACEMENT_3D ( 'NONE', #103, #302, #154 ) ;
#267 = EDGE_CURVE ( 'NONE', #74, #27, #23, .T. ) ;
#268 = APPROVAL_PERSON_ORGANIZATION ( #198, #80, #196 ) ;
#269 = ORIENTED_EDGE ( 'NONE', *, *, #283, .F. ) ;
#270 = VERTEX_POINT ( 'NONE', #86 ) ;
#271 = COORDINATED_UNIVERSAL_TIME_OFFSET ( 1, 0, .AHEAD. ) ;
#272 = VERTEX_POINT ( 'NONE', #288 ) ;
#273 = PERSON_AND_ORGANIZATION_ROLE ( 'classification_officer' ) ;
#274 = APPROVAL_DATE_TIME ( #48, #208 ) ;
#275 = DIRECTION ( 'NONE',  ( -0.000000000000000000, -0.000000000000000000, -1.000000000000000000 ) ) ;
#276 = FACE_OUTER_BOUND ( 'NONE', #93, .T. ) ;
#277 = EDGE_CURVE ( 'NONE', #71, #119, #96, .T. ) ;
#278 = CC_DESIGN_APPROVAL ( #80, ( #70 ) ) ;
#279 = CARTESIAN_POINT ( 'NONE',  ( 0.000000000000000000, 0.000000000000000000, 0.000000000000000000 ) ) ;
#280 = AXIS2_PLACEMENT_3D ( 'NONE', #65, #64, #61 ) ;
#281 = DIRECTION ( 'NONE',  ( 1.000000000000000000, 0.000000000000000000, -0.000000000000000000 ) ) ;
#282 = FACE_OUTER_BOUND ( 'NONE', #197, .T. ) ;
#283 = EDGE_CURVE ( 'NONE', #169, #119, #8, .T. ) ;
#284 = CARTESIAN_POINT ( 'NONE',  ( 0.000000000000000000, 0.000000000000000000, 2.199999999999993516 ) ) ;
#285 = CARTESIAN_POINT ( 'NONE',  ( 0.000000000000000000, 0.000000000000000000, 0.000000000000000000 ) ) ;
#286 = DIRECTION ( 'NONE',  ( 0.000000000000000000, 0.000000000000000000, 1.000000000000000000 ) ) ;
#287 = EDGE_CURVE ( 'NONE', #292, #169, #129, .T. ) ;
#288 = CARTESIAN_POINT ( 'NONE',  ( 2.000000000000000000, 2.449293598294706414E-16, 0.000000000000000000 ) ) ;
#289 = ORGANIZATION ( 'NEURÈENÝ', 'NEURÈENÝ', '' ) ;
#290 = EDGE_CURVE ( 'NONE', #75, #125, #205, .T. ) ;
#291 = CC_DESIGN_DATE_AND_TIME_ASSIGNMENT ( #76, #250, ( #70 ) ) ;
#292 = VERTEX_POINT ( 'NONE', #162 ) ;
#293 = ORIENTED_EDGE ( 'NONE', *, *, #222, .T. ) ;
#294 = CIRCLE ( 'NONE', #185, 1.000000000000000000 ) ;
#295 = ORIENTED_EDGE ( 'NONE', *, *, #46, .F. ) ;
#296 = PERSON_AND_ORGANIZATION ( #192, #289 ) ;
#297 = EDGE_LOOP ( 'NONE', ( #95, #170, #293, #225 ) ) ;
#298 = EDGE_CURVE ( 'NONE', #292, #71, #102, .T. ) ;
#299 = ORIENTED_EDGE ( 'NONE', *, *, #116, .T. ) ;
#300 = APPROVAL_PERSON_ORGANIZATION ( #184, #208, #55 ) ;
#301 = CALENDAR_DATE ( 2022, 7, 7 ) ;
#302 = DIRECTION ( 'NONE',  ( -0.000000000000000000, -0.000000000000000000, -1.000000000000000000 ) ) ;
#303 = DIRECTION ( 'NONE',  ( -0.000000000000000000, -0.000000000000000000, -1.000000000000000000 ) ) ;
#304 = DIRECTION ( 'NONE',  ( -0.000000000000000000, -0.000000000000000000, -1.000000000000000000 ) ) ;
#305 = AXIS2_PLACEMENT_3D ( 'NONE', #279, #128, #201 ) ;
#306 = FACE_OUTER_BOUND ( 'NONE', #26, .T. ) ;
#307 = DIRECTION ( 'NONE',  ( -0.000000000000000000, -0.000000000000000000, -1.000000000000000000 ) ) ;
ENDSEC;
END-ISO-10303-21;
