ISO-10303-21;
HEADER;
FILE_DESCRIPTION (( 'STEP AP203' ),
    '1' );
FILE_NAME ('b837.STEP',
    '2022-07-07T12:35:13',
    ( '' ),
    ( '' ),
    'SwSTEP 2.0',
    'SolidWorks 2019',
    '' );
FILE_SCHEMA (( 'CONFIG_CONTROL_DESIGN' ));
ENDSEC;

DATA;
#1 = APPROVAL ( #235, 'NEURÈENÝ' ) ;
#2 = AXIS2_PLACEMENT_3D ( 'NONE', #226, #10, #108 ) ;
#3 = ORIENTED_EDGE ( 'NONE', *, *, #72, .F. ) ;
#4 = EDGE_LOOP ( 'NONE', ( #175, #31, #148, #33 ) ) ;
#5 = FACE_OUTER_BOUND ( 'NONE', #258, .T. ) ;
#6 = DIRECTION ( 'NONE',  ( 0.000000000000000000, 0.000000000000000000, 1.000000000000000000 ) ) ;
#7 = VERTEX_POINT ( 'NONE', #125 ) ;
#8 = EDGE_CURVE ( 'NONE', #79, #119, #30, .T. ) ;
#9 =( LENGTH_UNIT ( ) NAMED_UNIT ( * ) SI_UNIT ( .MILLI., .METRE. ) );
#10 = DIRECTION ( 'NONE',  ( -0.000000000000000000, -0.000000000000000000, -1.000000000000000000 ) ) ;
#11 = APPROVAL ( #28, 'NEURÈENÝ' ) ;
#12 = CARTESIAN_POINT ( 'NONE',  ( 3.750000000000000000, 4.592425496802573972E-16, 505.0000000000000000 ) ) ;
#13 = APPLICATION_CONTEXT ( 'configuration controlled 3d designs of mechanical parts and assemblies' ) ;
#14 = DIRECTION ( 'NONE',  ( 1.000000000000000000, 0.000000000000000000, 0.000000000000000000 ) ) ;
#15 = AXIS2_PLACEMENT_3D ( 'NONE', #84, #180, #274 ) ;
#16 = DIRECTION ( 'NONE',  ( 1.224646799147353207E-16, 1.000000000000000000, -0.000000000000000000 ) ) ;
#17 = CARTESIAN_POINT ( 'NONE',  ( 0.000000000000000000, 0.000000000000000000, 5.199999999999982414 ) ) ;
#18 = CARTESIAN_POINT ( 'NONE',  ( 6.000000000000000888, 7.347880794884120722E-16, 5.000000000000000000 ) ) ;
#19 = DATE_AND_TIME ( #282, #283 ) ;
#20 = PERSON_AND_ORGANIZATION ( #262, #208 ) ;
#21 = VECTOR ( 'NONE', #104, 1000.000000000000000 ) ;
#22 = CIRCLE ( 'NONE', #150, 3.750000000000000000 ) ;
#23 = CC_DESIGN_APPROVAL ( #11, ( #131 ) ) ;
#24 = EDGE_CURVE ( 'NONE', #244, #176, #147, .T. ) ;
#25 = PERSON_AND_ORGANIZATION ( #262, #208 ) ;
#26 = CC_DESIGN_PERSON_AND_ORGANIZATION_ASSIGNMENT ( #140, #187, ( #238 ) ) ;
#27 = ORIENTED_EDGE ( 'NONE', *, *, #61, .F. ) ;
#28 = APPROVAL_STATUS ( 'not_yet_approved' ) ;
#29 = ADVANCED_FACE ( 'NONE', ( #60 ), #44, .F. ) ;
#30 = CIRCLE ( 'NONE', #111, 0.1999999999999996503 ) ;
#31 = ORIENTED_EDGE ( 'NONE', *, *, #158, .T. ) ;
#32 = CIRCLE ( 'NONE', #51, 6.000000000000000888 ) ;
#33 = ORIENTED_EDGE ( 'NONE', *, *, #264, .F. ) ;
#34 = CC_DESIGN_DATE_AND_TIME_ASSIGNMENT ( #302, #143, ( #240 ) ) ;
#35 = DIRECTION ( 'NONE',  ( 1.000000000000000000, 0.000000000000000000, 0.000000000000000000 ) ) ;
#36 = DIRECTION ( 'NONE',  ( -1.000000000000000000, 0.000000000000000000, 0.000000000000000000 ) ) ;
#37 = ORIENTED_EDGE ( 'NONE', *, *, #123, .F. ) ;
#38 = AXIS2_PLACEMENT_3D ( 'NONE', #75, #172, #191 ) ;
#39 = VERTEX_POINT ( 'NONE', #242 ) ;
#40 = DESIGN_CONTEXT ( 'detailed design', #249, 'design' ) ;
#41 = CARTESIAN_POINT ( 'NONE',  ( 0.000000000000000000, 0.000000000000000000, 5.000000000000000000 ) ) ;
#42 = FACE_OUTER_BOUND ( 'NONE', #261, .T. ) ;
#43 = PLANE ( 'NONE',  #57 ) ;
#44 = TOROIDAL_SURFACE ( 'NONE', #152, 3.949999999999999734, 0.2000000000000000111 ) ;
#45 = CARTESIAN_POINT ( 'NONE',  ( 0.000000000000000000, 0.000000000000000000, 0.000000000000000000 ) ) ;
#46 = CIRCLE ( 'NONE', #196, 0.1999999999999996503 ) ;
#47 = DATE_TIME_ROLE ( 'creation_date' ) ;
#48 =( NAMED_UNIT ( * ) SI_UNIT ( $, .STERADIAN. ) SOLID_ANGLE_UNIT ( ) );
#49 = CLOSED_SHELL ( 'NONE', ( #29, #77, #273, #189, #54, #80, #149, #110, #92 ) ) ;
#50 = COORDINATED_UNIVERSAL_TIME_OFFSET ( 1, 0, .AHEAD. ) ;
#51 = AXIS2_PLACEMENT_3D ( 'NONE', #45, #225, #136 ) ;
#52 = PERSON_AND_ORGANIZATION_ROLE ( 'classification_officer' ) ;
#53 = APPROVAL_DATE_TIME ( #257, #1 ) ;
#54 = ADVANCED_FACE ( 'NONE', ( #126, #5 ), #159, .T. ) ;
#55 = VECTOR ( 'NONE', #63, 1000.000000000000000 ) ;
#56 = VERTEX_POINT ( 'NONE', #203 ) ;
#57 = AXIS2_PLACEMENT_3D ( 'NONE', #137, #164, #289 ) ;
#58 = ORIENTED_EDGE ( 'NONE', *, *, #212, .T. ) ;
#59 = LOCAL_TIME ( 14, 35, 13.00000000000000000, #50 ) ;
#60 = FACE_OUTER_BOUND ( 'NONE', #218, .T. ) ;
#61 = EDGE_CURVE ( 'NONE', #79, #56, #278, .T. ) ;
#62 = ORIENTED_EDGE ( 'NONE', *, *, #8, .F. ) ;
#63 = DIRECTION ( 'NONE',  ( -0.000000000000000000, -0.000000000000000000, -1.000000000000000000 ) ) ;
#64 = CC_DESIGN_PERSON_AND_ORGANIZATION_ASSIGNMENT ( #25, #236, ( #131 ) ) ;
#65 = FACE_OUTER_BOUND ( 'NONE', #4, .T. ) ;
#66 = DIRECTION ( 'NONE',  ( 0.000000000000000000, 0.000000000000000000, 1.000000000000000000 ) ) ;
#67 = DIRECTION ( 'NONE',  ( 1.000000000000000000, 0.000000000000000000, 0.000000000000000000 ) ) ;
#68 = CARTESIAN_POINT ( 'NONE',  ( 0.000000000000000000, 0.000000000000000000, 5.199999999999982414 ) ) ;
#69 = FACE_OUTER_BOUND ( 'NONE', #177, .T. ) ;
#70 = CYLINDRICAL_SURFACE ( 'NONE', #144, 6.000000000000000888 ) ;
#71 = TOROIDAL_SURFACE ( 'NONE', #128, 3.949999999999999734, 0.2000000000000000111 ) ;
#72 = EDGE_CURVE ( 'NONE', #156, #7, #216, .T. ) ;
#73 = CC_DESIGN_DATE_AND_TIME_ASSIGNMENT ( #211, #47, ( #238 ) ) ;
#74 = APPROVAL_DATE_TIME ( #19, #11 ) ;
#75 = CARTESIAN_POINT ( 'NONE',  ( 0.000000000000000000, 0.000000000000000000, 0.000000000000000000 ) ) ;
#76 = ORIENTED_EDGE ( 'NONE', *, *, #264, .T. ) ;
#77 = ADVANCED_FACE ( 'NONE', ( #65 ), #245, .T. ) ;
#78 = VERTEX_POINT ( 'NONE', #86 ) ;
#79 = VERTEX_POINT ( 'NONE', #182 ) ;
#80 = ADVANCED_FACE ( 'NONE', ( #162 ), #227, .F. ) ;
#81 = AXIS2_PLACEMENT_3D ( 'NONE', #134, #138, #295 ) ;
#82 = ORIENTED_EDGE ( 'NONE', *, *, #284, .T. ) ;
#83 = DIRECTION ( 'NONE',  ( -1.000000000000000000, 0.000000000000000000, 0.000000000000000000 ) ) ;
#84 = CARTESIAN_POINT ( 'NONE',  ( 0.000000000000000000, 0.000000000000000000, 5.199999999999982414 ) ) ;
#85 = DIRECTION ( 'NONE',  ( 0.000000000000000000, 0.000000000000000000, 1.000000000000000000 ) ) ;
#86 = CARTESIAN_POINT ( 'NONE',  ( 6.000000000000000888, 7.347880794884120722E-16, 5.000000000000000000 ) ) ;
#87 = CARTESIAN_POINT ( 'NONE',  ( 0.000000000000000000, 0.000000000000000000, 5.000000000000000000 ) ) ;
#88 = CIRCLE ( 'NONE', #100, 3.949999999999999734 ) ;
#89 = FACE_OUTER_BOUND ( 'NONE', #263, .T. ) ;
#90 = DIRECTION ( 'NONE',  ( -0.000000000000000000, -0.000000000000000000, -1.000000000000000000 ) ) ;
#91 = APPLICATION_PROTOCOL_DEFINITION ( 'international standard', 'config_control_design', 1994, #249 ) ;
#92 = ADVANCED_FACE ( 'NONE', ( #184 ), #71, .F. ) ;
#93 = APPROVAL_PERSON_ORGANIZATION ( #120, #133, #167 ) ;
#94 =( NAMED_UNIT ( * ) PLANE_ANGLE_UNIT ( ) SI_UNIT ( $, .RADIAN. ) );
#95 = COORDINATED_UNIVERSAL_TIME_OFFSET ( 1, 0, .AHEAD. ) ;
#96 = CALENDAR_DATE ( 2022, 7, 7 ) ;
#97 = COORDINATED_UNIVERSAL_TIME_OFFSET ( 1, 0, .AHEAD. ) ;
#98 = EDGE_LOOP ( 'NONE', ( #122, #219, #76, #193 ) ) ;
#99 = ORIENTED_EDGE ( 'NONE', *, *, #139, .F. ) ;
#100 = AXIS2_PLACEMENT_3D ( 'NONE', #271, #179, #298 ) ;
#101 = ORIENTED_EDGE ( 'NONE', *, *, #260, .T. ) ;
#102 = ORIENTED_EDGE ( 'NONE', *, *, #201, .T. ) ;
#103 = EDGE_LOOP ( 'NONE', ( #3, #151 ) ) ;
#104 = DIRECTION ( 'NONE',  ( -0.000000000000000000, -0.000000000000000000, -1.000000000000000000 ) ) ;
#105 = APPROVAL_PERSON_ORGANIZATION ( #281, #1, #214 ) ;
#106 = ORIENTED_EDGE ( 'NONE', *, *, #8, .T. ) ;
#107 = DIRECTION ( 'NONE',  ( -0.000000000000000000, -0.000000000000000000, -1.000000000000000000 ) ) ;
#108 = DIRECTION ( 'NONE',  ( -1.000000000000000000, 0.000000000000000000, 0.000000000000000000 ) ) ;
#109 = LINE ( 'NONE', #186, #55 ) ;
#110 = ADVANCED_FACE ( 'NONE', ( #69 ), #43, .T. ) ;
#111 = AXIS2_PLACEMENT_3D ( 'NONE', #153, #266, #224 ) ;
#112 = DIRECTION ( 'NONE',  ( 0.000000000000000000, 0.000000000000000000, 1.000000000000000000 ) ) ;
#113 = CARTESIAN_POINT ( 'NONE',  ( -3.750000000000000000, 0.000000000000000000, 505.0000000000000000 ) ) ;
#114 = CC_DESIGN_PERSON_AND_ORGANIZATION_ASSIGNMENT ( #254, #52, ( #240 ) ) ;
#115 = DIRECTION ( 'NONE',  ( 0.000000000000000000, 0.000000000000000000, 1.000000000000000000 ) ) ;
#116 = APPROVAL_ROLE ( '' ) ;
#117 = AXIS2_PLACEMENT_3D ( 'NONE', #204, #66, #161 ) ;
#118 = DATE_AND_TIME ( #96, #239 ) ;
#119 = VERTEX_POINT ( 'NONE', #243 ) ;
#120 = PERSON_AND_ORGANIZATION ( #262, #208 ) ;
#121 =( GEOMETRIC_REPRESENTATION_CONTEXT ( 3 ) GLOBAL_UNCERTAINTY_ASSIGNED_CONTEXT ( ( #155 ) ) GLOBAL_UNIT_ASSIGNED_CONTEXT ( ( #9, #94, #48 ) ) REPRESENTATION_CONTEXT ( 'NONE', 'WORKASPACE' ) );
#122 = ORIENTED_EDGE ( 'NONE', *, *, #158, .F. ) ;
#123 = EDGE_CURVE ( 'NONE', #39, #156, #109, .T. ) ;
#124 = EDGE_LOOP ( 'NONE', ( #178, #27, #106, #285 ) ) ;
#125 = CARTESIAN_POINT ( 'NONE',  ( 6.000000000000000888, 7.347880794884120722E-16, 0.000000000000000000 ) ) ;
#126 = FACE_BOUND ( 'NONE', #286, .T. ) ;
#127 = CARTESIAN_POINT ( 'NONE',  ( 0.000000000000000000, 0.000000000000000000, 5.000000000000000000 ) ) ;
#128 = AXIS2_PLACEMENT_3D ( 'NONE', #17, #248, #230 ) ;
#129 = CIRCLE ( 'NONE', #265, 6.000000000000000888 ) ;
#130 = DIRECTION ( 'NONE',  ( 1.000000000000000000, 0.000000000000000000, -0.000000000000000000 ) ) ;
#131 = PRODUCT_DEFINITION_FORMATION_WITH_SPECIFIED_SOURCE ( 'LIBOVOLNÝ', '', #277, .NOT_KNOWN. ) ;
#132 = DIRECTION ( 'NONE',  ( 0.000000000000000000, 0.000000000000000000, 1.000000000000000000 ) ) ;
#133 = APPROVAL ( #145, 'NEURÈENÝ' ) ;
#134 = CARTESIAN_POINT ( 'NONE',  ( 0.000000000000000000, 0.000000000000000000, 505.0000000000000000 ) ) ;
#135 = ORIENTED_EDGE ( 'NONE', *, *, #72, .T. ) ;
#136 = DIRECTION ( 'NONE',  ( 1.000000000000000000, 0.000000000000000000, 0.000000000000000000 ) ) ;
#137 = CARTESIAN_POINT ( 'NONE',  ( 0.000000000000000000, 0.000000000000000000, 505.0000000000000000 ) ) ;
#138 = DIRECTION ( 'NONE',  ( -0.000000000000000000, -0.000000000000000000, -1.000000000000000000 ) ) ;
#139 = EDGE_CURVE ( 'NONE', #78, #39, #129, .T. ) ;
#140 = PERSON_AND_ORGANIZATION ( #262, #208 ) ;
#141 = PERSON_AND_ORGANIZATION ( #262, #208 ) ;
#142 = MANIFOLD_SOLID_BREP ( 'Zaoblit1', #49 ) ;
#143 = DATE_TIME_ROLE ( 'classification_date' ) ;
#144 = AXIS2_PLACEMENT_3D ( 'NONE', #185, #154, #36 ) ;
#145 = APPROVAL_STATUS ( 'not_yet_approved' ) ;
#146 = SHAPE_DEFINITION_REPRESENTATION ( #291, #288 ) ;
#147 = CIRCLE ( 'NONE', #270, 3.750000000000000000 ) ;
#148 = ORIENTED_EDGE ( 'NONE', *, *, #61, .T. ) ;
#149 = ADVANCED_FACE ( 'NONE', ( #206 ), #163, .T. ) ;
#150 = AXIS2_PLACEMENT_3D ( 'NONE', #68, #6, #181 ) ;
#151 = ORIENTED_EDGE ( 'NONE', *, *, #201, .F. ) ;
#152 = AXIS2_PLACEMENT_3D ( 'NONE', #297, #294, #35 ) ;
#153 = CARTESIAN_POINT ( 'NONE',  ( 3.949999999999999734, 0.000000000000000000, 5.199999999999982414 ) ) ;
#154 = DIRECTION ( 'NONE',  ( -0.000000000000000000, -0.000000000000000000, -1.000000000000000000 ) ) ;
#155 = UNCERTAINTY_MEASURE_WITH_UNIT (LENGTH_MEASURE( 1.000000000000000082E-05 ), #9, 'distance_accuracy_value', 'NONE');
#156 = VERTEX_POINT ( 'NONE', #275 ) ;
#157 = LINE ( 'NONE', #113, #21 ) ;
#158 = EDGE_CURVE ( 'NONE', #176, #79, #229, .T. ) ;
#159 = PLANE ( 'NONE',  #222 ) ;
#160 = CIRCLE ( 'NONE', #272, 6.000000000000000888 ) ;
#161 = DIRECTION ( 'NONE',  ( 1.000000000000000000, 0.000000000000000000, 0.000000000000000000 ) ) ;
#162 = FACE_OUTER_BOUND ( 'NONE', #103, .T. ) ;
#163 = CYLINDRICAL_SURFACE ( 'NONE', #81, 3.750000000000000000 ) ;
#164 = DIRECTION ( 'NONE',  ( 0.000000000000000000, 0.000000000000000000, 1.000000000000000000 ) ) ;
#165 = DIRECTION ( 'NONE',  ( 1.000000000000000000, 0.000000000000000000, 0.000000000000000000 ) ) ;
#166 = AXIS2_PLACEMENT_3D ( 'NONE', #241, #112, #207 ) ;
#167 = APPROVAL_ROLE ( '' ) ;
#168 = CC_DESIGN_APPROVAL ( #133, ( #238 ) ) ;
#169 = APPROVAL_DATE_TIME ( #118, #133 ) ;
#170 = SECURITY_CLASSIFICATION_LEVEL ( 'unclassified' ) ;
#171 = EDGE_CURVE ( 'NONE', #39, #78, #160, .T. ) ;
#172 = DIRECTION ( 'NONE',  ( 0.000000000000000000, 0.000000000000000000, 1.000000000000000000 ) ) ;
#173 = COORDINATED_UNIVERSAL_TIME_OFFSET ( 1, 0, .AHEAD. ) ;
#174 = ORIENTED_EDGE ( 'NONE', *, *, #123, .T. ) ;
#175 = ORIENTED_EDGE ( 'NONE', *, *, #212, .F. ) ;
#176 = VERTEX_POINT ( 'NONE', #183 ) ;
#177 = EDGE_LOOP ( 'NONE', ( #200, #58 ) ) ;
#178 = ORIENTED_EDGE ( 'NONE', *, *, #251, .F. ) ;
#179 = DIRECTION ( 'NONE',  ( -0.000000000000000000, -0.000000000000000000, -1.000000000000000000 ) ) ;
#180 = DIRECTION ( 'NONE',  ( 0.000000000000000000, 0.000000000000000000, 1.000000000000000000 ) ) ;
#181 = DIRECTION ( 'NONE',  ( 1.000000000000000000, 0.000000000000000000, 0.000000000000000000 ) ) ;
#182 = CARTESIAN_POINT ( 'NONE',  ( 3.750000000000000000, 4.592425496802573972E-16, 5.199999999999982414 ) ) ;
#183 = CARTESIAN_POINT ( 'NONE',  ( 3.750000000000000000, 4.592425496802573972E-16, 505.0000000000000000 ) ) ;
#184 = FACE_OUTER_BOUND ( 'NONE', #124, .T. ) ;
#185 = CARTESIAN_POINT ( 'NONE',  ( 0.000000000000000000, 0.000000000000000000, 5.000000000000000000 ) ) ;
#186 = CARTESIAN_POINT ( 'NONE',  ( -6.000000000000000888, 0.000000000000000000, 5.000000000000000000 ) ) ;
#187 = PERSON_AND_ORGANIZATION_ROLE ( 'creator' ) ;
#188 = VECTOR ( 'NONE', #90, 1000.000000000000000 ) ;
#189 = ADVANCED_FACE ( 'NONE', ( #42 ), #202, .T. ) ;
#190 = PERSON_AND_ORGANIZATION_ROLE ( 'design_owner' ) ;
#191 = DIRECTION ( 'NONE',  ( 1.000000000000000000, 0.000000000000000000, 0.000000000000000000 ) ) ;
#192 = COORDINATED_UNIVERSAL_TIME_OFFSET ( 1, 0, .AHEAD. ) ;
#193 = ORIENTED_EDGE ( 'NONE', *, *, #233, .T. ) ;
#194 = ORIENTED_EDGE ( 'NONE', *, *, #171, .F. ) ;
#195 = CIRCLE ( 'NONE', #117, 3.750000000000000000 ) ;
#196 = AXIS2_PLACEMENT_3D ( 'NONE', #247, #16, #279 ) ;
#197 = ORIENTED_EDGE ( 'NONE', *, *, #307, .T. ) ;
#198 = CC_DESIGN_PERSON_AND_ORGANIZATION_ASSIGNMENT ( #256, #215, ( #131 ) ) ;
#199 = ORIENTED_EDGE ( 'NONE', *, *, #233, .F. ) ;
#200 = ORIENTED_EDGE ( 'NONE', *, *, #24, .T. ) ;
#201 = EDGE_CURVE ( 'NONE', #7, #156, #32, .T. ) ;
#202 = CYLINDRICAL_SURFACE ( 'NONE', #237, 6.000000000000000888 ) ;
#203 = CARTESIAN_POINT ( 'NONE',  ( -3.750000000000000000, 0.000000000000000000, 5.199999999999982414 ) ) ;
#204 = CARTESIAN_POINT ( 'NONE',  ( 0.000000000000000000, 0.000000000000000000, 505.0000000000000000 ) ) ;
#205 = CARTESIAN_POINT ( 'NONE',  ( 0.000000000000000000, 0.000000000000000000, 0.000000000000000000 ) ) ;
#206 = FACE_OUTER_BOUND ( 'NONE', #98, .T. ) ;
#207 = DIRECTION ( 'NONE',  ( 1.000000000000000000, 0.000000000000000000, -0.000000000000000000 ) ) ;
#208 = ORGANIZATION ( 'NEURÈENÝ', 'NEURÈENÝ', '' ) ;
#209 = CARTESIAN_POINT ( 'NONE',  ( 0.000000000000000000, 0.000000000000000000, 5.000000000000000000 ) ) ;
#210 = DIRECTION ( 'NONE',  ( 1.000000000000000000, 0.000000000000000000, 0.000000000000000000 ) ) ;
#211 = DATE_AND_TIME ( #252, #259 ) ;
#212 = EDGE_CURVE ( 'NONE', #176, #244, #195, .T. ) ;
#213 = CC_DESIGN_APPROVAL ( #1, ( #240 ) ) ;
#214 = APPROVAL_ROLE ( '' ) ;
#215 = PERSON_AND_ORGANIZATION_ROLE ( 'design_supplier' ) ;
#216 = CIRCLE ( 'NONE', #228, 6.000000000000000888 ) ;
#217 = ORIENTED_EDGE ( 'NONE', *, *, #307, .F. ) ;
#218 = EDGE_LOOP ( 'NONE', ( #199, #267, #221, #62 ) ) ;
#219 = ORIENTED_EDGE ( 'NONE', *, *, #24, .F. ) ;
#220 = ORIENTED_EDGE ( 'NONE', *, *, #139, .T. ) ;
#221 = ORIENTED_EDGE ( 'NONE', *, *, #284, .F. ) ;
#222 = AXIS2_PLACEMENT_3D ( 'NONE', #41, #287, #130 ) ;
#223 = DIRECTION ( 'NONE',  ( -0.000000000000000000, -0.000000000000000000, -1.000000000000000000 ) ) ;
#224 = DIRECTION ( 'NONE',  ( 0.000000000000000000, 0.000000000000000000, -1.000000000000000000 ) ) ;
#225 = DIRECTION ( 'NONE',  ( 0.000000000000000000, 0.000000000000000000, 1.000000000000000000 ) ) ;
#226 = CARTESIAN_POINT ( 'NONE',  ( 0.000000000000000000, 0.000000000000000000, 505.0000000000000000 ) ) ;
#227 = PLANE ( 'NONE',  #166 ) ;
#228 = AXIS2_PLACEMENT_3D ( 'NONE', #205, #269, #14 ) ;
#229 = LINE ( 'NONE', #12, #188 ) ;
#230 = DIRECTION ( 'NONE',  ( 1.000000000000000000, 0.000000000000000000, 0.000000000000000000 ) ) ;
#231 = CARTESIAN_POINT ( 'NONE',  ( 0.000000000000000000, 0.000000000000000000, 5.000000000000000000 ) ) ;
#232 = MECHANICAL_CONTEXT ( 'NONE', #13, 'mechanical' ) ;
#233 = EDGE_CURVE ( 'NONE', #56, #79, #22, .T. ) ;
#234 = APPLICATION_PROTOCOL_DEFINITION ( 'international standard', 'config_control_design', 1994, #13 ) ;
#235 = APPROVAL_STATUS ( 'not_yet_approved' ) ;
#236 = PERSON_AND_ORGANIZATION_ROLE ( 'creator' ) ;
#237 = AXIS2_PLACEMENT_3D ( 'NONE', #231, #268, #83 ) ;
#238 = PRODUCT_DEFINITION ( 'NEZNÁMÝ', '', #131, #40 ) ;
#239 = LOCAL_TIME ( 14, 35, 13.00000000000000000, #97 ) ;
#240 = SECURITY_CLASSIFICATION ( '', '', #170 ) ;
#241 = CARTESIAN_POINT ( 'NONE',  ( 0.000000000000000000, 0.000000000000000000, 0.000000000000000000 ) ) ;
#242 = CARTESIAN_POINT ( 'NONE',  ( -6.000000000000000888, 0.000000000000000000, 5.000000000000000000 ) ) ;
#243 = CARTESIAN_POINT ( 'NONE',  ( 3.949999999999999734, 0.000000000000000000, 4.999999999999991118 ) ) ;
#244 = VERTEX_POINT ( 'NONE', #299 ) ;
#245 = CYLINDRICAL_SURFACE ( 'NONE', #2, 3.750000000000000000 ) ;
#246 = CARTESIAN_POINT ( 'NONE',  ( 0.000000000000000000, 0.000000000000000000, 505.0000000000000000 ) ) ;
#247 = CARTESIAN_POINT ( 'NONE',  ( -3.949999999999999734, 4.837354856632044071E-16, 5.199999999999982414 ) ) ;
#248 = DIRECTION ( 'NONE',  ( 0.000000000000000000, 0.000000000000000000, 1.000000000000000000 ) ) ;
#249 = APPLICATION_CONTEXT ( 'configuration controlled 3d designs of mechanical parts and assemblies' ) ;
#250 = DIRECTION ( 'NONE',  ( 1.000000000000000000, 0.000000000000000000, 0.000000000000000000 ) ) ;
#251 = EDGE_CURVE ( 'NONE', #56, #306, #46, .T. ) ;
#252 = CALENDAR_DATE ( 2022, 7, 7 ) ;
#253 = PRODUCT_RELATED_PRODUCT_CATEGORY ( 'detail', '', ( #277 ) ) ;
#254 = PERSON_AND_ORGANIZATION ( #262, #208 ) ;
#255 = AXIS2_PLACEMENT_3D ( 'NONE', #127, #107, #250 ) ;
#256 = PERSON_AND_ORGANIZATION ( #262, #208 ) ;
#257 = DATE_AND_TIME ( #304, #280 ) ;
#258 = EDGE_LOOP ( 'NONE', ( #290, #220 ) ) ;
#259 = LOCAL_TIME ( 14, 35, 13.00000000000000000, #192 ) ;
#260 = EDGE_CURVE ( 'NONE', #306, #119, #88, .T. ) ;
#261 = EDGE_LOOP ( 'NONE', ( #217, #194, #174, #135 ) ) ;
#262 = PERSON ( 'NEURÈENÝ', 'NEURÈENÝ', 'NEURÈENÝ', ('NEURÈENÝ'), ('NEURÈENÝ'), ('NEURÈENÝ') ) ;
#263 = EDGE_LOOP ( 'NONE', ( #99, #197, #102, #37 ) ) ;
#264 = EDGE_CURVE ( 'NONE', #244, #56, #157, .T. ) ;
#265 = AXIS2_PLACEMENT_3D ( 'NONE', #209, #115, #165 ) ;
#266 = DIRECTION ( 'NONE',  ( 0.000000000000000000, -1.000000000000000000, 0.000000000000000000 ) ) ;
#267 = ORIENTED_EDGE ( 'NONE', *, *, #251, .T. ) ;
#268 = DIRECTION ( 'NONE',  ( -0.000000000000000000, -0.000000000000000000, -1.000000000000000000 ) ) ;
#269 = DIRECTION ( 'NONE',  ( 0.000000000000000000, 0.000000000000000000, 1.000000000000000000 ) ) ;
#270 = AXIS2_PLACEMENT_3D ( 'NONE', #246, #132, #67 ) ;
#271 = CARTESIAN_POINT ( 'NONE',  ( 0.000000000000000000, 0.000000000000000000, 5.000000000000000000 ) ) ;
#272 = AXIS2_PLACEMENT_3D ( 'NONE', #87, #85, #210 ) ;
#273 = ADVANCED_FACE ( 'NONE', ( #89 ), #70, .T. ) ;
#274 = DIRECTION ( 'NONE',  ( 1.000000000000000000, 0.000000000000000000, 0.000000000000000000 ) ) ;
#275 = CARTESIAN_POINT ( 'NONE',  ( -6.000000000000000888, 0.000000000000000000, 0.000000000000000000 ) ) ;
#276 = CARTESIAN_POINT ( 'NONE',  ( -3.949999999999999734, 4.837354856632044071E-16, 4.999999999999991118 ) ) ;
#277 = PRODUCT ( 'b837', 'b837', '', ( #232 ) ) ;
#278 = CIRCLE ( 'NONE', #15, 3.750000000000000000 ) ;
#279 = DIRECTION ( 'NONE',  ( -1.000000000000000000, 1.224646799147353454E-16, 0.000000000000000000 ) ) ;
#280 = LOCAL_TIME ( 14, 35, 13.00000000000000000, #95 ) ;
#281 = PERSON_AND_ORGANIZATION ( #262, #208 ) ;
#282 = CALENDAR_DATE ( 2022, 7, 7 ) ;
#283 = LOCAL_TIME ( 14, 35, 13.00000000000000000, #173 ) ;
#284 = EDGE_CURVE ( 'NONE', #119, #306, #296, .T. ) ;
#285 = ORIENTED_EDGE ( 'NONE', *, *, #260, .F. ) ;
#286 = EDGE_LOOP ( 'NONE', ( #82, #101 ) ) ;
#287 = DIRECTION ( 'NONE',  ( 0.000000000000000000, 0.000000000000000000, 1.000000000000000000 ) ) ;
#288 = ADVANCED_BREP_SHAPE_REPRESENTATION ( 'b837', ( #142, #38 ), #121 ) ;
#289 = DIRECTION ( 'NONE',  ( 1.000000000000000000, 0.000000000000000000, -0.000000000000000000 ) ) ;
#290 = ORIENTED_EDGE ( 'NONE', *, *, #171, .T. ) ;
#291 = PRODUCT_DEFINITION_SHAPE ( 'NONE', 'NONE',  #238 ) ;
#292 = LINE ( 'NONE', #18, #305 ) ;
#293 = CC_DESIGN_PERSON_AND_ORGANIZATION_ASSIGNMENT ( #20, #190, ( #277 ) ) ;
#294 = DIRECTION ( 'NONE',  ( 0.000000000000000000, 0.000000000000000000, 1.000000000000000000 ) ) ;
#295 = DIRECTION ( 'NONE',  ( -1.000000000000000000, 0.000000000000000000, 0.000000000000000000 ) ) ;
#296 = CIRCLE ( 'NONE', #255, 3.949999999999999734 ) ;
#297 = CARTESIAN_POINT ( 'NONE',  ( 0.000000000000000000, 0.000000000000000000, 5.199999999999982414 ) ) ;
#298 = DIRECTION ( 'NONE',  ( 1.000000000000000000, 0.000000000000000000, 0.000000000000000000 ) ) ;
#299 = CARTESIAN_POINT ( 'NONE',  ( -3.750000000000000000, 0.000000000000000000, 505.0000000000000000 ) ) ;
#300 = APPROVAL_PERSON_ORGANIZATION ( #141, #11, #116 ) ;
#301 = CC_DESIGN_SECURITY_CLASSIFICATION ( #240, ( #131 ) ) ;
#302 = DATE_AND_TIME ( #303, #59 ) ;
#303 = CALENDAR_DATE ( 2022, 7, 7 ) ;
#304 = CALENDAR_DATE ( 2022, 7, 7 ) ;
#305 = VECTOR ( 'NONE', #223, 1000.000000000000000 ) ;
#306 = VERTEX_POINT ( 'NONE', #276 ) ;
#307 = EDGE_CURVE ( 'NONE', #78, #7, #292, .T. ) ;
ENDSEC;
END-ISO-10303-21;
