ISO-10303-21;
HEADER;
FILE_DESCRIPTION (( 'STEP AP203' ),
    '1' );
FILE_NAME ('7a1d.STEP',
    '2022-07-07T12:34:14',
    ( '' ),
    ( '' ),
    'SwSTEP 2.0',
    'SolidWorks 2019',
    '' );
FILE_SCHEMA (( 'CONFIG_CONTROL_DESIGN' ));
ENDSEC;

DATA;
#1 = DIRECTION ( 'NONE',  ( 0.000000000000000000, 0.000000000000000000, 1.000000000000000000 ) ) ;
#2 = AXIS2_PLACEMENT_3D ( 'NONE', #211, #1, #187 ) ;
#3 = PRODUCT_RELATED_PRODUCT_CATEGORY ( 'detail', '', ( #214 ) ) ;
#4 = FACE_OUTER_BOUND ( 'NONE', #150, .T. ) ;
#5 = DIRECTION ( 'NONE',  ( 1.000000000000000000, 0.000000000000000000, 0.000000000000000000 ) ) ;
#6 = LOCAL_TIME ( 14, 34, 14.00000000000000000, #173 ) ;
#7 = EDGE_CURVE ( 'NONE', #254, #18, #199, .T. ) ;
#8 = DIRECTION ( 'NONE',  ( 1.000000000000000000, 0.000000000000000000, 0.000000000000000000 ) ) ;
#9 = DATE_AND_TIME ( #52, #6 ) ;
#10 = APPROVAL ( #267, 'NEURÈENÝ' ) ;
#11 = PERSON_AND_ORGANIZATION ( #156, #193 ) ;
#12 = EDGE_LOOP ( 'NONE', ( #295, #121, #125, #152 ) ) ;
#13 = EDGE_CURVE ( 'NONE', #296, #75, #174, .T. ) ;
#14 = ORIENTED_EDGE ( 'NONE', *, *, #31, .T. ) ;
#15 = DIRECTION ( 'NONE',  ( -1.000000000000000000, 0.000000000000000000, 0.000000000000000000 ) ) ;
#16 = CARTESIAN_POINT ( 'NONE',  ( 0.000000000000000000, 0.000000000000000000, 255.0000000000000000 ) ) ;
#17 = DIRECTION ( 'NONE',  ( 0.000000000000000000, 0.000000000000000000, 1.000000000000000000 ) ) ;
#18 = VERTEX_POINT ( 'NONE', #301 ) ;
#19 = DIRECTION ( 'NONE',  ( 1.000000000000000000, 0.000000000000000000, -0.000000000000000000 ) ) ;
#20 = ORIENTED_EDGE ( 'NONE', *, *, #207, .F. ) ;
#21 = DIRECTION ( 'NONE',  ( 1.000000000000000000, 0.000000000000000000, 0.000000000000000000 ) ) ;
#22 = PLANE ( 'NONE',  #205 ) ;
#23 = DIRECTION ( 'NONE',  ( 0.000000000000000000, 0.000000000000000000, 1.000000000000000000 ) ) ;
#24 = AXIS2_PLACEMENT_3D ( 'NONE', #226, #281, #283 ) ;
#25 = LOCAL_TIME ( 14, 34, 14.00000000000000000, #29 ) ;
#26 = AXIS2_PLACEMENT_3D ( 'NONE', #81, #179, #306 ) ;
#27 = COORDINATED_UNIVERSAL_TIME_OFFSET ( 1, 0, .AHEAD. ) ;
#28 = CARTESIAN_POINT ( 'NONE',  ( 4.000000000000000000, 4.898587196589412829E-16, 255.0000000000000000 ) ) ;
#29 = COORDINATED_UNIVERSAL_TIME_OFFSET ( 1, 0, .AHEAD. ) ;
#30 = DATE_AND_TIME ( #118, #217 ) ;
#31 = EDGE_CURVE ( 'NONE', #18, #254, #213, .T. ) ;
#32 = CC_DESIGN_APPROVAL ( #114, ( #143 ) ) ;
#33 = AXIS2_PLACEMENT_3D ( 'NONE', #302, #36, #15 ) ;
#34 = ORIENTED_EDGE ( 'NONE', *, *, #180, .F. ) ;
#35 = ORIENTED_EDGE ( 'NONE', *, *, #265, .F. ) ;
#36 = DIRECTION ( 'NONE',  ( -0.000000000000000000, -0.000000000000000000, -1.000000000000000000 ) ) ;
#37 = VERTEX_POINT ( 'NONE', #282 ) ;
#38 = PLANE ( 'NONE',  #243 ) ;
#39 = ORIENTED_EDGE ( 'NONE', *, *, #250, .F. ) ;
#40 = CARTESIAN_POINT ( 'NONE',  ( 7.000000000000000000, 8.572527594031473190E-16, 5.000000000000000000 ) ) ;
#41 = PRODUCT_DEFINITION_FORMATION_WITH_SPECIFIED_SOURCE ( 'LIBOVOLNÝ', '', #214, .NOT_KNOWN. ) ;
#42 = DIRECTION ( 'NONE',  ( 1.000000000000000000, 0.000000000000000000, 0.000000000000000000 ) ) ;
#43 = FACE_OUTER_BOUND ( 'NONE', #12, .T. ) ;
#44 = CC_DESIGN_PERSON_AND_ORGANIZATION_ASSIGNMENT ( #147, #76, ( #159 ) ) ;
#45 = APPROVAL_STATUS ( 'not_yet_approved' ) ;
#46 = LINE ( 'NONE', #136, #256 ) ;
#47 = CYLINDRICAL_SURFACE ( 'NONE', #89, 4.000000000000000000 ) ;
#48 = CARTESIAN_POINT ( 'NONE',  ( 0.000000000000000000, 0.000000000000000000, 0.000000000000000000 ) ) ;
#49 = APPLICATION_PROTOCOL_DEFINITION ( 'international standard', 'config_control_design', 1994, #238 ) ;
#50 = ADVANCED_FACE ( 'NONE', ( #184 ), #195, .F. ) ;
#51 = SECURITY_CLASSIFICATION_LEVEL ( 'unclassified' ) ;
#52 = CALENDAR_DATE ( 2022, 7, 7 ) ;
#53 = PERSON_AND_ORGANIZATION_ROLE ( 'design_supplier' ) ;
#54 = ORIENTED_EDGE ( 'NONE', *, *, #95, .T. ) ;
#55 = DATE_TIME_ROLE ( 'creation_date' ) ;
#56 = ORIENTED_EDGE ( 'NONE', *, *, #287, .T. ) ;
#57 = CARTESIAN_POINT ( 'NONE',  ( -4.200000000000000178, 5.143516556418882928E-16, 5.200000000000009948 ) ) ;
#58 = ORIENTED_EDGE ( 'NONE', *, *, #13, .F. ) ;
#59 = CARTESIAN_POINT ( 'NONE',  ( 4.000000000000000000, 4.898587196589412829E-16, 5.200000000000009948 ) ) ;
#60 = VERTEX_POINT ( 'NONE', #209 ) ;
#61 = ADVANCED_FACE ( 'NONE', ( #43 ), #145, .F. ) ;
#62 = CARTESIAN_POINT ( 'NONE',  ( 0.000000000000000000, 0.000000000000000000, 255.0000000000000000 ) ) ;
#63 = ORIENTED_EDGE ( 'NONE', *, *, #180, .T. ) ;
#64 = DIRECTION ( 'NONE',  ( 0.000000000000000000, 0.000000000000000000, -1.000000000000000000 ) ) ;
#65 = CIRCLE ( 'NONE', #140, 4.000000000000000000 ) ;
#66 = CARTESIAN_POINT ( 'NONE',  ( 0.000000000000000000, 0.000000000000000000, 5.200000000000009948 ) ) ;
#67 = CC_DESIGN_PERSON_AND_ORGANIZATION_ASSIGNMENT ( #263, #90, ( #214 ) ) ;
#68 = PLANE ( 'NONE',  #284 ) ;
#69 = CC_DESIGN_PERSON_AND_ORGANIZATION_ASSIGNMENT ( #269, #117, ( #41 ) ) ;
#70 = PERSON_AND_ORGANIZATION ( #156, #193 ) ;
#71 = CARTESIAN_POINT ( 'NONE',  ( 0.000000000000000000, 0.000000000000000000, 5.200000000000009948 ) ) ;
#72 = DATE_AND_TIME ( #293, #25 ) ;
#73 = APPROVAL_ROLE ( '' ) ;
#74 = VECTOR ( 'NONE', #190, 1000.000000000000000 ) ;
#75 = VERTEX_POINT ( 'NONE', #273 ) ;
#76 = PERSON_AND_ORGANIZATION_ROLE ( 'classification_officer' ) ;
#77 = ORIENTED_EDGE ( 'NONE', *, *, #258, .F. ) ;
#78 = CARTESIAN_POINT ( 'NONE',  ( -7.000000000000000000, 0.000000000000000000, 0.000000000000000000 ) ) ;
#79 = EDGE_LOOP ( 'NONE', ( #14, #182 ) ) ;
#80 = FACE_OUTER_BOUND ( 'NONE', #224, .T. ) ;
#81 = CARTESIAN_POINT ( 'NONE',  ( 0.000000000000000000, 0.000000000000000000, 5.000000000000000000 ) ) ;
#82 = LOCAL_TIME ( 14, 34, 14.00000000000000000, #137 ) ;
#83 = FACE_OUTER_BOUND ( 'NONE', #233, .T. ) ;
#84 = EDGE_LOOP ( 'NONE', ( #20, #201, #63, #246 ) ) ;
#85 = AXIS2_PLACEMENT_3D ( 'NONE', #160, #200, #64 ) ;
#86 = DIRECTION ( 'NONE',  ( 0.000000000000000000, 0.000000000000000000, 1.000000000000000000 ) ) ;
#87 = CARTESIAN_POINT ( 'NONE',  ( 0.000000000000000000, 0.000000000000000000, 5.200000000000009948 ) ) ;
#88 = DIRECTION ( 'NONE',  ( -1.000000000000000000, 0.000000000000000000, 0.000000000000000000 ) ) ;
#89 = AXIS2_PLACEMENT_3D ( 'NONE', #112, #113, #191 ) ;
#90 = PERSON_AND_ORGANIZATION_ROLE ( 'design_owner' ) ;
#91 = CARTESIAN_POINT ( 'NONE',  ( 0.000000000000000000, 0.000000000000000000, 255.0000000000000000 ) ) ;
#92 = AXIS2_PLACEMENT_3D ( 'NONE', #71, #110, #289 ) ;
#93 = CARTESIAN_POINT ( 'NONE',  ( -4.000000000000000000, 0.000000000000000000, 5.200000000000009948 ) ) ;
#94 = APPROVAL_DATE_TIME ( #9, #162 ) ;
#95 = EDGE_CURVE ( 'NONE', #270, #254, #132, .T. ) ;
#96 = AXIS2_PLACEMENT_3D ( 'NONE', #228, #104, #131 ) ;
#97 = APPROVAL_ROLE ( '' ) ;
#98 = ORIENTED_EDGE ( 'NONE', *, *, #194, .T. ) ;
#99 = UNCERTAINTY_MEASURE_WITH_UNIT (LENGTH_MEASURE( 1.000000000000000082E-05 ), #116, 'distance_accuracy_value', 'NONE');
#100 = ORIENTED_EDGE ( 'NONE', *, *, #194, .F. ) ;
#101 = DIRECTION ( 'NONE',  ( 0.000000000000000000, 0.000000000000000000, 1.000000000000000000 ) ) ;
#102 = EDGE_CURVE ( 'NONE', #37, #172, #219, .T. ) ;
#103 = DIRECTION ( 'NONE',  ( 0.000000000000000000, 0.000000000000000000, 1.000000000000000000 ) ) ;
#104 = DIRECTION ( 'NONE',  ( 0.000000000000000000, 0.000000000000000000, 1.000000000000000000 ) ) ;
#105 = ORIENTED_EDGE ( 'NONE', *, *, #265, .T. ) ;
#106 = DIRECTION ( 'NONE',  ( 1.000000000000000000, 0.000000000000000000, 0.000000000000000000 ) ) ;
#107 = EDGE_LOOP ( 'NONE', ( #175, #98 ) ) ;
#108 = AXIS2_PLACEMENT_3D ( 'NONE', #198, #249, #227 ) ;
#109 = LINE ( 'NONE', #235, #135 ) ;
#110 = DIRECTION ( 'NONE',  ( 0.000000000000000000, 0.000000000000000000, 1.000000000000000000 ) ) ;
#111 = CIRCLE ( 'NONE', #232, 7.000000000000000000 ) ;
#112 = CARTESIAN_POINT ( 'NONE',  ( 0.000000000000000000, 0.000000000000000000, 255.0000000000000000 ) ) ;
#113 = DIRECTION ( 'NONE',  ( -0.000000000000000000, -0.000000000000000000, -1.000000000000000000 ) ) ;
#114 = APPROVAL ( #45, 'NEURÈENÝ' ) ;
#115 = CALENDAR_DATE ( 2022, 7, 7 ) ;
#116 =( LENGTH_UNIT ( ) NAMED_UNIT ( * ) SI_UNIT ( .MILLI., .METRE. ) );
#117 = PERSON_AND_ORGANIZATION_ROLE ( 'creator' ) ;
#118 = CALENDAR_DATE ( 2022, 7, 7 ) ;
#119 = CC_DESIGN_APPROVAL ( #162, ( #159 ) ) ;
#120 = ORIENTED_EDGE ( 'NONE', *, *, #275, .F. ) ;
#121 = ORIENTED_EDGE ( 'NONE', *, *, #304, .F. ) ;
#122 = DIRECTION ( 'NONE',  ( 0.000000000000000000, 0.000000000000000000, 1.000000000000000000 ) ) ;
#123 = DESIGN_CONTEXT ( 'detailed design', #251, 'design' ) ;
#124 = CARTESIAN_POINT ( 'NONE',  ( 0.000000000000000000, 0.000000000000000000, 5.200000000000009948 ) ) ;
#125 = ORIENTED_EDGE ( 'NONE', *, *, #154, .T. ) ;
#126 = CARTESIAN_POINT ( 'NONE',  ( 0.000000000000000000, 0.000000000000000000, 5.000000000000000000 ) ) ;
#127 = CC_DESIGN_DATE_AND_TIME_ASSIGNMENT ( #169, #55, ( #143 ) ) ;
#128 = CIRCLE ( 'NONE', #216, 7.000000000000000000 ) ;
#129 = ORIENTED_EDGE ( 'NONE', *, *, #196, .T. ) ;
#130 = APPROVAL_PERSON_ORGANIZATION ( #271, #10, #73 ) ;
#131 = DIRECTION ( 'NONE',  ( 1.000000000000000000, 0.000000000000000000, 0.000000000000000000 ) ) ;
#132 = CIRCLE ( 'NONE', #290, 0.1999999999999996503 ) ;
#133 = FACE_OUTER_BOUND ( 'NONE', #84, .T. ) ;
#134 = APPROVAL_ROLE ( '' ) ;
#135 = VECTOR ( 'NONE', #253, 1000.000000000000000 ) ;
#136 = CARTESIAN_POINT ( 'NONE',  ( 4.000000000000000000, 4.898587196589412829E-16, 255.0000000000000000 ) ) ;
#137 = COORDINATED_UNIVERSAL_TIME_OFFSET ( 1, 0, .AHEAD. ) ;
#138 = ADVANCED_BREP_SHAPE_REPRESENTATION ( '7a1d', ( #168, #2 ), #268 ) ;
#139 = CC_DESIGN_DATE_AND_TIME_ASSIGNMENT ( #72, #144, ( #159 ) ) ;
#140 = AXIS2_PLACEMENT_3D ( 'NONE', #66, #176, #106 ) ;
#141 = MECHANICAL_CONTEXT ( 'NONE', #238, 'mechanical' ) ;
#142 = APPROVAL_DATE_TIME ( #30, #10 ) ;
#143 = PRODUCT_DEFINITION ( 'NEZNÁMÝ', '', #41, #123 ) ;
#144 = DATE_TIME_ROLE ( 'classification_date' ) ;
#145 = TOROIDAL_SURFACE ( 'NONE', #278, 4.200000000000000178, 0.2000000000000000111 ) ;
#146 = ORIENTED_EDGE ( 'NONE', *, *, #250, .T. ) ;
#147 = PERSON_AND_ORGANIZATION ( #156, #193 ) ;
#148 = ORIENTED_EDGE ( 'NONE', *, *, #196, .F. ) ;
#149 = LINE ( 'NONE', #259, #165 ) ;
#150 = EDGE_LOOP ( 'NONE', ( #120, #148, #105, #146 ) ) ;
#151 = DIRECTION ( 'NONE',  ( 1.000000000000000000, 0.000000000000000000, 0.000000000000000000 ) ) ;
#152 = ORIENTED_EDGE ( 'NONE', *, *, #7, .F. ) ;
#153 = DIRECTION ( 'NONE',  ( 0.000000000000000000, 0.000000000000000000, 1.000000000000000000 ) ) ;
#154 = EDGE_CURVE ( 'NONE', #225, #18, #223, .T. ) ;
#155 = ORIENTED_EDGE ( 'NONE', *, *, #287, .F. ) ;
#156 = PERSON ( 'NEURÈENÝ', 'NEURÈENÝ', 'NEURÈENÝ', ('NEURÈENÝ'), ('NEURÈENÝ'), ('NEURÈENÝ') ) ;
#157 = DIRECTION ( 'NONE',  ( -0.000000000000000000, -0.000000000000000000, -1.000000000000000000 ) ) ;
#158 = CIRCLE ( 'NONE', #242, 7.000000000000000000 ) ;
#159 = SECURITY_CLASSIFICATION ( '', '', #51 ) ;
#160 = CARTESIAN_POINT ( 'NONE',  ( 4.200000000000000178, 0.000000000000000000, 5.200000000000009948 ) ) ;
#161 = PERSON_AND_ORGANIZATION ( #156, #193 ) ;
#162 = APPROVAL ( #220, 'NEURÈENÝ' ) ;
#163 = CARTESIAN_POINT ( 'NONE',  ( -4.000000000000000000, 0.000000000000000000, 255.0000000000000000 ) ) ;
#164 = DIRECTION ( 'NONE',  ( 0.000000000000000000, 0.000000000000000000, 1.000000000000000000 ) ) ;
#165 = VECTOR ( 'NONE', #157, 1000.000000000000000 ) ;
#166 = DIRECTION ( 'NONE',  ( -0.000000000000000000, -0.000000000000000000, -1.000000000000000000 ) ) ;
#167 = CC_DESIGN_PERSON_AND_ORGANIZATION_ASSIGNMENT ( #70, #240, ( #143 ) ) ;
#168 = MANIFOLD_SOLID_BREP ( 'Zaoblit1', #266 ) ;
#169 = DATE_AND_TIME ( #115, #206 ) ;
#170 = ADVANCED_FACE ( 'NONE', ( #204 ), #181, .T. ) ;
#171 = CC_DESIGN_SECURITY_CLASSIFICATION ( #159, ( #41 ) ) ;
#172 = VERTEX_POINT ( 'NONE', #40 ) ;
#173 = COORDINATED_UNIVERSAL_TIME_OFFSET ( 1, 0, .AHEAD. ) ;
#174 = CIRCLE ( 'NONE', #260, 4.000000000000000000 ) ;
#175 = ORIENTED_EDGE ( 'NONE', *, *, #102, .T. ) ;
#176 = DIRECTION ( 'NONE',  ( 0.000000000000000000, 0.000000000000000000, 1.000000000000000000 ) ) ;
#177 = EDGE_LOOP ( 'NONE', ( #58, #277, #274, #35 ) ) ;
#178 = DIRECTION ( 'NONE',  ( 1.000000000000000000, 0.000000000000000000, 0.000000000000000000 ) ) ;
#179 = DIRECTION ( 'NONE',  ( -0.000000000000000000, -0.000000000000000000, -1.000000000000000000 ) ) ;
#180 = EDGE_CURVE ( 'NONE', #37, #245, #149, .T. ) ;
#181 = CYLINDRICAL_SURFACE ( 'NONE', #33, 4.000000000000000000 ) ;
#182 = ORIENTED_EDGE ( 'NONE', *, *, #7, .T. ) ;
#183 = DIRECTION ( 'NONE',  ( 0.000000000000000000, 0.000000000000000000, 1.000000000000000000 ) ) ;
#184 = FACE_OUTER_BOUND ( 'NONE', #303, .T. ) ;
#185 = CYLINDRICAL_SURFACE ( 'NONE', #24, 7.000000000000000000 ) ;
#186 = APPLICATION_PROTOCOL_DEFINITION ( 'international standard', 'config_control_design', 1994, #251 ) ;
#187 = DIRECTION ( 'NONE',  ( 1.000000000000000000, 0.000000000000000000, 0.000000000000000000 ) ) ;
#188 = CALENDAR_DATE ( 2022, 7, 7 ) ;
#189 = ADVANCED_FACE ( 'NONE', ( #83 ), #38, .F. ) ;
#190 = DIRECTION ( 'NONE',  ( -0.000000000000000000, -0.000000000000000000, -1.000000000000000000 ) ) ;
#191 = DIRECTION ( 'NONE',  ( -1.000000000000000000, 0.000000000000000000, 0.000000000000000000 ) ) ;
#192 = SHAPE_DEFINITION_REPRESENTATION ( #241, #138 ) ;
#193 = ORGANIZATION ( 'NEURÈENÝ', 'NEURÈENÝ', '' ) ;
#194 = EDGE_CURVE ( 'NONE', #172, #37, #111, .T. ) ;
#195 = TOROIDAL_SURFACE ( 'NONE', #239, 4.200000000000000178, 0.2000000000000000111 ) ;
#196 = EDGE_CURVE ( 'NONE', #75, #296, #292, .T. ) ;
#197 = AXIS2_PLACEMENT_3D ( 'NONE', #62, #153, #21 ) ;
#198 = CARTESIAN_POINT ( 'NONE',  ( 0.000000000000000000, 0.000000000000000000, 5.000000000000000000 ) ) ;
#199 = CIRCLE ( 'NONE', #108, 4.200000000000000178 ) ;
#200 = DIRECTION ( 'NONE',  ( 0.000000000000000000, -1.000000000000000000, 0.000000000000000000 ) ) ;
#201 = ORIENTED_EDGE ( 'NONE', *, *, #102, .F. ) ;
#202 = CARTESIAN_POINT ( 'NONE',  ( 0.000000000000000000, 0.000000000000000000, 5.000000000000000000 ) ) ;
#203 = DIRECTION ( 'NONE',  ( 1.000000000000000000, 0.000000000000000000, 0.000000000000000000 ) ) ;
#204 = FACE_OUTER_BOUND ( 'NONE', #177, .T. ) ;
#205 = AXIS2_PLACEMENT_3D ( 'NONE', #126, #231, #19 ) ;
#206 = LOCAL_TIME ( 14, 34, 14.00000000000000000, #27 ) ;
#207 = EDGE_CURVE ( 'NONE', #172, #60, #109, .T. ) ;
#208 = CARTESIAN_POINT ( 'NONE',  ( -4.200000000000000178, 5.143516556418882928E-16, 5.000000000000005329 ) ) ;
#209 = CARTESIAN_POINT ( 'NONE',  ( 7.000000000000000000, 8.572527594031473190E-16, 0.000000000000000000 ) ) ;
#210 = FACE_BOUND ( 'NONE', #79, .T. ) ;
#211 = CARTESIAN_POINT ( 'NONE',  ( 0.000000000000000000, 0.000000000000000000, 0.000000000000000000 ) ) ;
#212 = AXIS2_PLACEMENT_3D ( 'NONE', #307, #297, #88 ) ;
#213 = CIRCLE ( 'NONE', #26, 4.200000000000000178 ) ;
#214 = PRODUCT ( '7a1d', '7a1d', '', ( #141 ) ) ;
#215 = ADVANCED_FACE ( 'NONE', ( #210, #247 ), #22, .T. ) ;
#216 = AXIS2_PLACEMENT_3D ( 'NONE', #305, #86, #8 ) ;
#217 = LOCAL_TIME ( 14, 34, 14.00000000000000000, #294 ) ;
#218 =( NAMED_UNIT ( * ) PLANE_ANGLE_UNIT ( ) SI_UNIT ( $, .RADIAN. ) );
#219 = CIRCLE ( 'NONE', #96, 7.000000000000000000 ) ;
#220 = APPROVAL_STATUS ( 'not_yet_approved' ) ;
#221 = ADVANCED_FACE ( 'NONE', ( #80 ), #276, .T. ) ;
#222 = APPROVAL_PERSON_ORGANIZATION ( #161, #114, #134 ) ;
#223 = CIRCLE ( 'NONE', #85, 0.1999999999999996503 ) ;
#224 = EDGE_LOOP ( 'NONE', ( #100, #272, #56, #34 ) ) ;
#225 = VERTEX_POINT ( 'NONE', #59 ) ;
#226 = CARTESIAN_POINT ( 'NONE',  ( 0.000000000000000000, 0.000000000000000000, 5.000000000000000000 ) ) ;
#227 = DIRECTION ( 'NONE',  ( 1.000000000000000000, 0.000000000000000000, 0.000000000000000000 ) ) ;
#228 = CARTESIAN_POINT ( 'NONE',  ( 0.000000000000000000, 0.000000000000000000, 5.000000000000000000 ) ) ;
#229 = ADVANCED_FACE ( 'NONE', ( #133 ), #185, .T. ) ;
#230 = EDGE_LOOP ( 'NONE', ( #129, #252 ) ) ;
#231 = DIRECTION ( 'NONE',  ( 0.000000000000000000, 0.000000000000000000, 1.000000000000000000 ) ) ;
#232 = AXIS2_PLACEMENT_3D ( 'NONE', #202, #183, #178 ) ;
#233 = EDGE_LOOP ( 'NONE', ( #77, #155 ) ) ;
#234 = CARTESIAN_POINT ( 'NONE',  ( 0.000000000000000000, 0.000000000000000000, 0.000000000000000000 ) ) ;
#235 = CARTESIAN_POINT ( 'NONE',  ( 7.000000000000000000, 8.572527594031473190E-16, 5.000000000000000000 ) ) ;
#236 = DATE_AND_TIME ( #188, #82 ) ;
#237 = FACE_OUTER_BOUND ( 'NONE', #230, .T. ) ;
#238 = APPLICATION_CONTEXT ( 'configuration controlled 3d designs of mechanical parts and assemblies' ) ;
#239 = AXIS2_PLACEMENT_3D ( 'NONE', #87, #122, #151 ) ;
#240 = PERSON_AND_ORGANIZATION_ROLE ( 'creator' ) ;
#241 = PRODUCT_DEFINITION_SHAPE ( 'NONE', 'NONE',  #143 ) ;
#242 = AXIS2_PLACEMENT_3D ( 'NONE', #48, #164, #5 ) ;
#243 = AXIS2_PLACEMENT_3D ( 'NONE', #234, #101, #279 ) ;
#244 = PERSON_AND_ORGANIZATION ( #156, #193 ) ;
#245 = VERTEX_POINT ( 'NONE', #78 ) ;
#246 = ORIENTED_EDGE ( 'NONE', *, *, #258, .T. ) ;
#247 = FACE_OUTER_BOUND ( 'NONE', #107, .T. ) ;
#248 = APPROVAL_PERSON_ORGANIZATION ( #244, #162, #97 ) ;
#249 = DIRECTION ( 'NONE',  ( -0.000000000000000000, -0.000000000000000000, -1.000000000000000000 ) ) ;
#250 = EDGE_CURVE ( 'NONE', #270, #225, #65, .T. ) ;
#251 = APPLICATION_CONTEXT ( 'configuration controlled 3d designs of mechanical parts and assemblies' ) ;
#252 = ORIENTED_EDGE ( 'NONE', *, *, #13, .T. ) ;
#253 = DIRECTION ( 'NONE',  ( -0.000000000000000000, -0.000000000000000000, -1.000000000000000000 ) ) ;
#254 = VERTEX_POINT ( 'NONE', #208 ) ;
#255 = DIRECTION ( 'NONE',  ( -1.000000000000000000, 1.224646799147353454E-16, 0.000000000000000000 ) ) ;
#256 = VECTOR ( 'NONE', #166, 1000.000000000000000 ) ;
#257 = CIRCLE ( 'NONE', #92, 4.000000000000000000 ) ;
#258 = EDGE_CURVE ( 'NONE', #245, #60, #128, .T. ) ;
#259 = CARTESIAN_POINT ( 'NONE',  ( -7.000000000000000000, 0.000000000000000000, 5.000000000000000000 ) ) ;
#260 = AXIS2_PLACEMENT_3D ( 'NONE', #16, #103, #203 ) ;
#261 =( NAMED_UNIT ( * ) SI_UNIT ( $, .STERADIAN. ) SOLID_ANGLE_UNIT ( ) );
#262 = CC_DESIGN_APPROVAL ( #10, ( #41 ) ) ;
#263 = PERSON_AND_ORGANIZATION ( #156, #193 ) ;
#264 = CC_DESIGN_PERSON_AND_ORGANIZATION_ASSIGNMENT ( #11, #53, ( #41 ) ) ;
#265 = EDGE_CURVE ( 'NONE', #75, #270, #285, .T. ) ;
#266 = CLOSED_SHELL ( 'NONE', ( #50, #170, #221, #229, #215, #189, #298, #291, #61 ) ) ;
#267 = APPROVAL_STATUS ( 'not_yet_approved' ) ;
#268 =( GEOMETRIC_REPRESENTATION_CONTEXT ( 3 ) GLOBAL_UNCERTAINTY_ASSIGNED_CONTEXT ( ( #99 ) ) GLOBAL_UNIT_ASSIGNED_CONTEXT ( ( #116, #218, #261 ) ) REPRESENTATION_CONTEXT ( 'NONE', 'WORKASPACE' ) );
#269 = PERSON_AND_ORGANIZATION ( #156, #193 ) ;
#270 = VERTEX_POINT ( 'NONE', #93 ) ;
#271 = PERSON_AND_ORGANIZATION ( #156, #193 ) ;
#272 = ORIENTED_EDGE ( 'NONE', *, *, #207, .T. ) ;
#273 = CARTESIAN_POINT ( 'NONE',  ( -4.000000000000000000, 0.000000000000000000, 255.0000000000000000 ) ) ;
#274 = ORIENTED_EDGE ( 'NONE', *, *, #304, .T. ) ;
#275 = EDGE_CURVE ( 'NONE', #296, #225, #46, .T. ) ;
#276 = CYLINDRICAL_SURFACE ( 'NONE', #212, 7.000000000000000000 ) ;
#277 = ORIENTED_EDGE ( 'NONE', *, *, #275, .T. ) ;
#278 = AXIS2_PLACEMENT_3D ( 'NONE', #124, #17, #42 ) ;
#279 = DIRECTION ( 'NONE',  ( 1.000000000000000000, 0.000000000000000000, -0.000000000000000000 ) ) ;
#280 = ORIENTED_EDGE ( 'NONE', *, *, #31, .F. ) ;
#281 = DIRECTION ( 'NONE',  ( -0.000000000000000000, -0.000000000000000000, -1.000000000000000000 ) ) ;
#282 = CARTESIAN_POINT ( 'NONE',  ( -7.000000000000000000, 0.000000000000000000, 5.000000000000000000 ) ) ;
#283 = DIRECTION ( 'NONE',  ( -1.000000000000000000, 0.000000000000000000, 0.000000000000000000 ) ) ;
#284 = AXIS2_PLACEMENT_3D ( 'NONE', #91, #23, #286 ) ;
#285 = LINE ( 'NONE', #163, #74 ) ;
#286 = DIRECTION ( 'NONE',  ( 1.000000000000000000, 0.000000000000000000, -0.000000000000000000 ) ) ;
#287 = EDGE_CURVE ( 'NONE', #60, #245, #158, .T. ) ;
#288 = APPROVAL_DATE_TIME ( #236, #114 ) ;
#289 = DIRECTION ( 'NONE',  ( 1.000000000000000000, 0.000000000000000000, 0.000000000000000000 ) ) ;
#290 = AXIS2_PLACEMENT_3D ( 'NONE', #57, #300, #255 ) ;
#291 = ADVANCED_FACE ( 'NONE', ( #237 ), #68, .T. ) ;
#292 = CIRCLE ( 'NONE', #197, 4.000000000000000000 ) ;
#293 = CALENDAR_DATE ( 2022, 7, 7 ) ;
#294 = COORDINATED_UNIVERSAL_TIME_OFFSET ( 1, 0, .AHEAD. ) ;
#295 = ORIENTED_EDGE ( 'NONE', *, *, #95, .F. ) ;
#296 = VERTEX_POINT ( 'NONE', #28 ) ;
#297 = DIRECTION ( 'NONE',  ( -0.000000000000000000, -0.000000000000000000, -1.000000000000000000 ) ) ;
#298 = ADVANCED_FACE ( 'NONE', ( #4 ), #47, .T. ) ;
#299 = ORIENTED_EDGE ( 'NONE', *, *, #154, .F. ) ;
#300 = DIRECTION ( 'NONE',  ( 1.224646799147353207E-16, 1.000000000000000000, -0.000000000000000000 ) ) ;
#301 = CARTESIAN_POINT ( 'NONE',  ( 4.200000000000000178, 0.000000000000000000, 5.000000000000005329 ) ) ;
#302 = CARTESIAN_POINT ( 'NONE',  ( 0.000000000000000000, 0.000000000000000000, 255.0000000000000000 ) ) ;
#303 = EDGE_LOOP ( 'NONE', ( #39, #54, #280, #299 ) ) ;
#304 = EDGE_CURVE ( 'NONE', #225, #270, #257, .T. ) ;
#305 = CARTESIAN_POINT ( 'NONE',  ( 0.000000000000000000, 0.000000000000000000, 0.000000000000000000 ) ) ;
#306 = DIRECTION ( 'NONE',  ( 1.000000000000000000, 0.000000000000000000, 0.000000000000000000 ) ) ;
#307 = CARTESIAN_POINT ( 'NONE',  ( 0.000000000000000000, 0.000000000000000000, 5.000000000000000000 ) ) ;
ENDSEC;
END-ISO-10303-21;
