ISO-10303-21;
HEADER;
FILE_DESCRIPTION (( 'STEP AP203' ),
    '1' );
FILE_NAME ('419d.STEP',
    '2022-07-07T12:30:30',
    ( '' ),
    ( '' ),
    'SwSTEP 2.0',
    'SolidWorks 2019',
    '' );
FILE_SCHEMA (( 'CONFIG_CONTROL_DESIGN' ));
ENDSEC;

DATA;
#1 = APPLICATION_CONTEXT ( 'configuration controlled 3d designs of mechanical parts and assemblies' ) ;
#2 = SECURITY_CLASSIFICATION ( '', '', #145 ) ;
#3 = EDGE_CURVE ( 'NONE', #275, #300, #253, .T. ) ;
#4 = CIRCLE ( 'NONE', #178, 7.000000000000000000 ) ;
#5 = COORDINATED_UNIVERSAL_TIME_OFFSET ( 1, 0, .AHEAD. ) ;
#6 = COORDINATED_UNIVERSAL_TIME_OFFSET ( 1, 0, .AHEAD. ) ;
#7 = DIRECTION ( 'NONE',  ( -1.000000000000000000, 0.000000000000000000, 0.000000000000000000 ) ) ;
#8 = CARTESIAN_POINT ( 'NONE',  ( 4.500000000000000000, 5.510910596163088569E-16, 105.0000000000000142 ) ) ;
#9 = DIRECTION ( 'NONE',  ( 0.000000000000000000, 0.000000000000000000, 1.000000000000000000 ) ) ;
#10 = ORIENTED_EDGE ( 'NONE', *, *, #204, .F. ) ;
#11 = CLOSED_SHELL ( 'NONE', ( #165, #233, #285, #230, #291, #89, #273, #121, #206 ) ) ;
#12 = CYLINDRICAL_SURFACE ( 'NONE', #237, 7.000000000000000000 ) ;
#13 = EDGE_LOOP ( 'NONE', ( #307, #203 ) ) ;
#14 = DIRECTION ( 'NONE',  ( -0.000000000000000000, -0.000000000000000000, -1.000000000000000000 ) ) ;
#15 = CARTESIAN_POINT ( 'NONE',  ( 0.000000000000000000, 0.000000000000000000, 5.000000000000000000 ) ) ;
#16 = EDGE_LOOP ( 'NONE', ( #267, #303, #37, #241 ) ) ;
#17 = ORIENTED_EDGE ( 'NONE', *, *, #204, .T. ) ;
#18 = ORIENTED_EDGE ( 'NONE', *, *, #304, .F. ) ;
#19 = APPROVAL ( #141, 'NEURÈENÝ' ) ;
#20 = CIRCLE ( 'NONE', #271, 0.1999999999999996503 ) ;
#21 = APPROVAL_PERSON_ORGANIZATION ( #140, #90, #235 ) ;
#22 = COORDINATED_UNIVERSAL_TIME_OFFSET ( 1, 0, .AHEAD. ) ;
#23 = DATE_AND_TIME ( #294, #164 ) ;
#24 = CARTESIAN_POINT ( 'NONE',  ( 0.000000000000000000, 0.000000000000000000, 0.000000000000000000 ) ) ;
#25 = CARTESIAN_POINT ( 'NONE',  ( 7.000000000000000000, 8.572527594031473190E-16, 5.000000000000000000 ) ) ;
#26 = CARTESIAN_POINT ( 'NONE',  ( -7.000000000000000000, 0.000000000000000000, 5.000000000000000000 ) ) ;
#27 = DIRECTION ( 'NONE',  ( 1.000000000000000000, 0.000000000000000000, 0.000000000000000000 ) ) ;
#28 = CARTESIAN_POINT ( 'NONE',  ( 0.000000000000000000, 0.000000000000000000, 5.000000000000000000 ) ) ;
#29 = DIRECTION ( 'NONE',  ( 0.000000000000000000, 0.000000000000000000, 1.000000000000000000 ) ) ;
#30 = FACE_OUTER_BOUND ( 'NONE', #245, .T. ) ;
#31 = DIRECTION ( 'NONE',  ( 0.000000000000000000, 0.000000000000000000, 1.000000000000000000 ) ) ;
#32 = EDGE_CURVE ( 'NONE', #133, #136, #210, .T. ) ;
#33 = CC_DESIGN_PERSON_AND_ORGANIZATION_ASSIGNMENT ( #213, #219, ( #287 ) ) ;
#34 = CYLINDRICAL_SURFACE ( 'NONE', #85, 7.000000000000000000 ) ;
#35 = CARTESIAN_POINT ( 'NONE',  ( 4.500000000000000000, 5.510910596163088569E-16, 105.0000000000000142 ) ) ;
#36 = ORIENTED_EDGE ( 'NONE', *, *, #254, .F. ) ;
#37 = ORIENTED_EDGE ( 'NONE', *, *, #64, .T. ) ;
#38 = ORIENTED_EDGE ( 'NONE', *, *, #32, .F. ) ;
#39 = AXIS2_PLACEMENT_3D ( 'NONE', #80, #196, #53 ) ;
#40 = CC_DESIGN_PERSON_AND_ORGANIZATION_ASSIGNMENT ( #263, #41, ( #2 ) ) ;
#41 = PERSON_AND_ORGANIZATION_ROLE ( 'classification_officer' ) ;
#42 = CIRCLE ( 'NONE', #161, 7.000000000000000000 ) ;
#43 = PERSON_AND_ORGANIZATION ( #262, #266 ) ;
#44 =( NAMED_UNIT ( * ) SI_UNIT ( $, .STERADIAN. ) SOLID_ANGLE_UNIT ( ) );
#45 = CARTESIAN_POINT ( 'NONE',  ( 0.000000000000000000, 0.000000000000000000, 5.199999999999996625 ) ) ;
#46 = COORDINATED_UNIVERSAL_TIME_OFFSET ( 1, 0, .AHEAD. ) ;
#47 = DIRECTION ( 'NONE',  ( -1.000000000000000000, 0.000000000000000000, 0.000000000000000000 ) ) ;
#48 = DIRECTION ( 'NONE',  ( 0.000000000000000000, 0.000000000000000000, 1.000000000000000000 ) ) ;
#49 = DIRECTION ( 'NONE',  ( 0.000000000000000000, 0.000000000000000000, 1.000000000000000000 ) ) ;
#50 = DATE_TIME_ROLE ( 'creation_date' ) ;
#51 = DIRECTION ( 'NONE',  ( 1.000000000000000000, 0.000000000000000000, 0.000000000000000000 ) ) ;
#52 = FACE_OUTER_BOUND ( 'NONE', #248, .T. ) ;
#53 = DIRECTION ( 'NONE',  ( 1.000000000000000000, 0.000000000000000000, 0.000000000000000000 ) ) ;
#54 = DIRECTION ( 'NONE',  ( 1.000000000000000000, 0.000000000000000000, 0.000000000000000000 ) ) ;
#55 = ORIENTED_EDGE ( 'NONE', *, *, #163, .T. ) ;
#56 = CARTESIAN_POINT ( 'NONE',  ( -4.500000000000000000, 0.000000000000000000, 105.0000000000000142 ) ) ;
#57 = EDGE_LOOP ( 'NONE', ( #84, #124, #17, #55 ) ) ;
#58 = EDGE_CURVE ( 'NONE', #270, #136, #112, .T. ) ;
#59 = PRODUCT ( '419d', '419d', '', ( #142 ) ) ;
#60 = ORIENTED_EDGE ( 'NONE', *, *, #257, .T. ) ;
#61 = ORIENTED_EDGE ( 'NONE', *, *, #66, .T. ) ;
#62 = MANIFOLD_SOLID_BREP ( 'Zaoblit1', #11 ) ;
#63 = APPROVAL_PERSON_ORGANIZATION ( #43, #19, #148 ) ;
#64 = EDGE_CURVE ( 'NONE', #128, #270, #251, .T. ) ;
#65 = VECTOR ( 'NONE', #179, 1000.000000000000000 ) ;
#66 = EDGE_CURVE ( 'NONE', #300, #275, #92, .T. ) ;
#67 = CC_DESIGN_PERSON_AND_ORGANIZATION_ASSIGNMENT ( #170, #76, ( #59 ) ) ;
#68 = AXIS2_PLACEMENT_3D ( 'NONE', #272, #74, #47 ) ;
#69 = CC_DESIGN_DATE_AND_TIME_ASSIGNMENT ( #167, #50, ( #108 ) ) ;
#70 = DATE_AND_TIME ( #174, #95 ) ;
#71 = FACE_OUTER_BOUND ( 'NONE', #16, .T. ) ;
#72 = AXIS2_PLACEMENT_3D ( 'NONE', #151, #158, #306 ) ;
#73 = APPROVAL_STATUS ( 'not_yet_approved' ) ;
#74 = DIRECTION ( 'NONE',  ( -0.000000000000000000, -0.000000000000000000, -1.000000000000000000 ) ) ;
#75 = LINE ( 'NONE', #8, #135 ) ;
#76 = PERSON_AND_ORGANIZATION_ROLE ( 'design_owner' ) ;
#77 = DIRECTION ( 'NONE',  ( 1.000000000000000000, 0.000000000000000000, 0.000000000000000000 ) ) ;
#78 = VECTOR ( 'NONE', #177, 1000.000000000000000 ) ;
#79 = CARTESIAN_POINT ( 'NONE',  ( 4.699999999999999289, 0.000000000000000000, 5.199999999999996625 ) ) ;
#80 = CARTESIAN_POINT ( 'NONE',  ( 0.000000000000000000, 0.000000000000000000, 5.000000000000000000 ) ) ;
#81 = DIRECTION ( 'NONE',  ( 1.000000000000000000, 0.000000000000000000, 0.000000000000000000 ) ) ;
#82 = EDGE_LOOP ( 'NONE', ( #180, #160 ) ) ;
#83 = DIRECTION ( 'NONE',  ( 0.000000000000000000, 0.000000000000000000, 1.000000000000000000 ) ) ;
#84 = ORIENTED_EDGE ( 'NONE', *, *, #91, .F. ) ;
#85 = AXIS2_PLACEMENT_3D ( 'NONE', #246, #126, #220 ) ;
#86 = UNCERTAINTY_MEASURE_WITH_UNIT (LENGTH_MEASURE( 1.000000000000000082E-05 ), #192, 'distance_accuracy_value', 'NONE');
#87 = ORIENTED_EDGE ( 'NONE', *, *, #258, .F. ) ;
#88 = ORIENTED_EDGE ( 'NONE', *, *, #143, .T. ) ;
#89 = ADVANCED_FACE ( 'NONE', ( #293 ), #123, .F. ) ;
#90 = APPROVAL ( #73, 'NEURÈENÝ' ) ;
#91 = EDGE_CURVE ( 'NONE', #275, #225, #236, .T. ) ;
#92 = CIRCLE ( 'NONE', #292, 7.000000000000000000 ) ;
#93 = EDGE_CURVE ( 'NONE', #132, #128, #75, .T. ) ;
#94 = CC_DESIGN_DATE_AND_TIME_ASSIGNMENT ( #70, #234, ( #2 ) ) ;
#95 = LOCAL_TIME ( 14, 30, 30.00000000000000000, #6 ) ;
#96 = APPLICATION_PROTOCOL_DEFINITION ( 'international standard', 'config_control_design', 1994, #187 ) ;
#97 = DIRECTION ( 'NONE',  ( 1.000000000000000000, 0.000000000000000000, -0.000000000000000000 ) ) ;
#98 = PERSON_AND_ORGANIZATION ( #262, #266 ) ;
#99 = FACE_OUTER_BOUND ( 'NONE', #186, .T. ) ;
#100 = CARTESIAN_POINT ( 'NONE',  ( 4.500000000000000000, 5.510910596163088569E-16, 5.199999999999996625 ) ) ;
#101 = CALENDAR_DATE ( 2022, 7, 7 ) ;
#102 = DIRECTION ( 'NONE',  ( 1.000000000000000000, 0.000000000000000000, -0.000000000000000000 ) ) ;
#103 = CARTESIAN_POINT ( 'NONE',  ( 0.000000000000000000, 0.000000000000000000, 5.000000000000000000 ) ) ;
#104 = CIRCLE ( 'NONE', #212, 4.500000000000000000 ) ;
#105 = CARTESIAN_POINT ( 'NONE',  ( 0.000000000000000000, 0.000000000000000000, 5.199999999999996625 ) ) ;
#106 = CARTESIAN_POINT ( 'NONE',  ( 0.000000000000000000, 0.000000000000000000, 0.000000000000000000 ) ) ;
#107 = ORIENTED_EDGE ( 'NONE', *, *, #258, .T. ) ;
#108 = PRODUCT_DEFINITION ( 'NEZNÁMÝ', '', #287, #279 ) ;
#109 = CARTESIAN_POINT ( 'NONE',  ( 0.000000000000000000, 0.000000000000000000, 105.0000000000000142 ) ) ;
#110 = DIRECTION ( 'NONE',  ( -1.000000000000000000, 0.000000000000000000, 0.000000000000000000 ) ) ;
#111 = ORIENTED_EDGE ( 'NONE', *, *, #64, .F. ) ;
#112 = CIRCLE ( 'NONE', #72, 0.1999999999999996503 ) ;
#113 = DIRECTION ( 'NONE',  ( 1.000000000000000000, 0.000000000000000000, 0.000000000000000000 ) ) ;
#114 = EDGE_LOOP ( 'NONE', ( #61, #222 ) ) ;
#115 = TOROIDAL_SURFACE ( 'NONE', #229, 4.699999999999999289, 0.2000000000000000111 ) ;
#116 = AXIS2_PLACEMENT_3D ( 'NONE', #146, #190, #27 ) ;
#117 = COORDINATED_UNIVERSAL_TIME_OFFSET ( 1, 0, .AHEAD. ) ;
#118 = CALENDAR_DATE ( 2022, 7, 7 ) ;
#119 = CARTESIAN_POINT ( 'NONE',  ( 7.000000000000000000, 8.572527594031473190E-16, 5.000000000000000000 ) ) ;
#120 = CARTESIAN_POINT ( 'NONE',  ( 4.699999999999999289, 0.000000000000000000, 4.999999999999998224 ) ) ;
#121 = ADVANCED_FACE ( 'NONE', ( #30 ), #297, .T. ) ;
#122 = CARTESIAN_POINT ( 'NONE',  ( -7.000000000000000000, 0.000000000000000000, 0.000000000000000000 ) ) ;
#123 = PLANE ( 'NONE',  #283 ) ;
#124 = ORIENTED_EDGE ( 'NONE', *, *, #66, .F. ) ;
#125 = PERSON_AND_ORGANIZATION ( #262, #266 ) ;
#126 = DIRECTION ( 'NONE',  ( -0.000000000000000000, -0.000000000000000000, -1.000000000000000000 ) ) ;
#127 = FACE_OUTER_BOUND ( 'NONE', #205, .T. ) ;
#128 = VERTEX_POINT ( 'NONE', #100 ) ;
#129 = AXIS2_PLACEMENT_3D ( 'NONE', #295, #14, #301 ) ;
#130 = FACE_BOUND ( 'NONE', #82, .T. ) ;
#131 = DIRECTION ( 'NONE',  ( 0.000000000000000000, 0.000000000000000000, 1.000000000000000000 ) ) ;
#132 = VERTEX_POINT ( 'NONE', #35 ) ;
#133 = VERTEX_POINT ( 'NONE', #120 ) ;
#134 = AXIS2_PLACEMENT_3D ( 'NONE', #45, #131, #265 ) ;
#135 = VECTOR ( 'NONE', #195, 1000.000000000000000 ) ;
#136 = VERTEX_POINT ( 'NONE', #240 ) ;
#137 = CIRCLE ( 'NONE', #156, 4.500000000000000000 ) ;
#138 = LOCAL_TIME ( 14, 30, 30.00000000000000000, #46 ) ;
#139 = CC_DESIGN_PERSON_AND_ORGANIZATION_ASSIGNMENT ( #125, #168, ( #108 ) ) ;
#140 = PERSON_AND_ORGANIZATION ( #262, #266 ) ;
#141 = APPROVAL_STATUS ( 'not_yet_approved' ) ;
#142 = MECHANICAL_CONTEXT ( 'NONE', #1, 'mechanical' ) ;
#143 = EDGE_CURVE ( 'NONE', #225, #281, #42, .T. ) ;
#144 = DIRECTION ( 'NONE',  ( 1.000000000000000000, 0.000000000000000000, 0.000000000000000000 ) ) ;
#145 = SECURITY_CLASSIFICATION_LEVEL ( 'unclassified' ) ;
#146 = CARTESIAN_POINT ( 'NONE',  ( 0.000000000000000000, 0.000000000000000000, 105.0000000000000142 ) ) ;
#147 = DIRECTION ( 'NONE',  ( 1.000000000000000000, 0.000000000000000000, 0.000000000000000000 ) ) ;
#148 = APPROVAL_ROLE ( '' ) ;
#149 = LINE ( 'NONE', #56, #78 ) ;
#150 = CARTESIAN_POINT ( 'NONE',  ( 7.000000000000000000, 8.572527594031473190E-16, 0.000000000000000000 ) ) ;
#151 = CARTESIAN_POINT ( 'NONE',  ( -4.699999999999999289, 5.755839955992558669E-16, 5.199999999999996625 ) ) ;
#152 = APPLICATION_PROTOCOL_DEFINITION ( 'international standard', 'config_control_design', 1994, #1 ) ;
#153 = DIRECTION ( 'NONE',  ( 1.000000000000000000, 0.000000000000000000, 0.000000000000000000 ) ) ;
#154 = ORIENTED_EDGE ( 'NONE', *, *, #155, .T. ) ;
#155 = EDGE_CURVE ( 'NONE', #128, #133, #20, .T. ) ;
#156 = AXIS2_PLACEMENT_3D ( 'NONE', #105, #29, #157 ) ;
#157 = DIRECTION ( 'NONE',  ( 1.000000000000000000, 0.000000000000000000, 0.000000000000000000 ) ) ;
#158 = DIRECTION ( 'NONE',  ( 1.224646799147353207E-16, 1.000000000000000000, -0.000000000000000000 ) ) ;
#159 = ORIENTED_EDGE ( 'NONE', *, *, #58, .T. ) ;
#160 = ORIENTED_EDGE ( 'NONE', *, *, #304, .T. ) ;
#161 = AXIS2_PLACEMENT_3D ( 'NONE', #302, #9, #153 ) ;
#162 = AXIS2_PLACEMENT_3D ( 'NONE', #260, #268, #216 ) ;
#163 = EDGE_CURVE ( 'NONE', #281, #225, #4, .T. ) ;
#164 = LOCAL_TIME ( 14, 30, 30.00000000000000000, #22 ) ;
#165 = ADVANCED_FACE ( 'NONE', ( #127 ), #255, .F. ) ;
#166 =( GEOMETRIC_REPRESENTATION_CONTEXT ( 3 ) GLOBAL_UNCERTAINTY_ASSIGNED_CONTEXT ( ( #86 ) ) GLOBAL_UNIT_ASSIGNED_CONTEXT ( ( #192, #183, #44 ) ) REPRESENTATION_CONTEXT ( 'NONE', 'WORKASPACE' ) );
#167 = DATE_AND_TIME ( #118, #249 ) ;
#168 = PERSON_AND_ORGANIZATION_ROLE ( 'creator' ) ;
#169 = CARTESIAN_POINT ( 'NONE',  ( 0.000000000000000000, 0.000000000000000000, 105.0000000000000142 ) ) ;
#170 = PERSON_AND_ORGANIZATION ( #262, #266 ) ;
#171 = CYLINDRICAL_SURFACE ( 'NONE', #68, 4.500000000000000000 ) ;
#172 = CARTESIAN_POINT ( 'NONE',  ( 0.000000000000000000, 0.000000000000000000, 105.0000000000000142 ) ) ;
#173 = ORIENTED_EDGE ( 'NONE', *, *, #58, .F. ) ;
#174 = CALENDAR_DATE ( 2022, 7, 7 ) ;
#175 = FACE_OUTER_BOUND ( 'NONE', #114, .T. ) ;
#176 = ORIENTED_EDGE ( 'NONE', *, *, #254, .T. ) ;
#177 = DIRECTION ( 'NONE',  ( -0.000000000000000000, -0.000000000000000000, -1.000000000000000000 ) ) ;
#178 = AXIS2_PLACEMENT_3D ( 'NONE', #106, #48, #81 ) ;
#179 = DIRECTION ( 'NONE',  ( -0.000000000000000000, -0.000000000000000000, -1.000000000000000000 ) ) ;
#180 = ORIENTED_EDGE ( 'NONE', *, *, #32, .T. ) ;
#181 = EDGE_CURVE ( 'NONE', #132, #228, #185, .T. ) ;
#182 = PRODUCT_RELATED_PRODUCT_CATEGORY ( 'detail', '', ( #59 ) ) ;
#183 =( NAMED_UNIT ( * ) PLANE_ANGLE_UNIT ( ) SI_UNIT ( $, .RADIAN. ) );
#184 = ORIENTED_EDGE ( 'NONE', *, *, #181, .T. ) ;
#185 = CIRCLE ( 'NONE', #116, 4.500000000000000000 ) ;
#186 = EDGE_LOOP ( 'NONE', ( #298, #218, #88, #10 ) ) ;
#187 = APPLICATION_CONTEXT ( 'configuration controlled 3d designs of mechanical parts and assemblies' ) ;
#188 = CC_DESIGN_SECURITY_CLASSIFICATION ( #2, ( #287 ) ) ;
#189 = SHAPE_DEFINITION_REPRESENTATION ( #226, #208 ) ;
#190 = DIRECTION ( 'NONE',  ( 0.000000000000000000, 0.000000000000000000, 1.000000000000000000 ) ) ;
#191 = PERSON_AND_ORGANIZATION_ROLE ( 'creator' ) ;
#192 =( LENGTH_UNIT ( ) NAMED_UNIT ( * ) SI_UNIT ( .MILLI., .METRE. ) );
#193 = DIRECTION ( 'NONE',  ( 0.000000000000000000, 0.000000000000000000, -1.000000000000000000 ) ) ;
#194 = PERSON_AND_ORGANIZATION ( #262, #266 ) ;
#195 = DIRECTION ( 'NONE',  ( -0.000000000000000000, -0.000000000000000000, -1.000000000000000000 ) ) ;
#196 = DIRECTION ( 'NONE',  ( 0.000000000000000000, 0.000000000000000000, 1.000000000000000000 ) ) ;
#197 = AXIS2_PLACEMENT_3D ( 'NONE', #24, #239, #77 ) ;
#198 = ORIENTED_EDGE ( 'NONE', *, *, #155, .F. ) ;
#199 = CARTESIAN_POINT ( 'NONE',  ( -4.500000000000000000, 0.000000000000000000, 5.199999999999996625 ) ) ;
#200 = AXIS2_PLACEMENT_3D ( 'NONE', #172, #217, #97 ) ;
#201 = CARTESIAN_POINT ( 'NONE',  ( 0.000000000000000000, 0.000000000000000000, 0.000000000000000000 ) ) ;
#202 = EDGE_LOOP ( 'NONE', ( #250, #36, #60, #107 ) ) ;
#203 = ORIENTED_EDGE ( 'NONE', *, *, #143, .F. ) ;
#204 = EDGE_CURVE ( 'NONE', #300, #281, #247, .T. ) ;
#205 = EDGE_LOOP ( 'NONE', ( #87, #159, #38, #198 ) ) ;
#206 = ADVANCED_FACE ( 'NONE', ( #52 ), #115, .F. ) ;
#207 = AXIS2_PLACEMENT_3D ( 'NONE', #280, #49, #147 ) ;
#208 = ADVANCED_BREP_SHAPE_REPRESENTATION ( '419d', ( #62, #197 ), #166 ) ;
#209 = APPROVAL_DATE_TIME ( #23, #90 ) ;
#210 = CIRCLE ( 'NONE', #227, 4.699999999999999289 ) ;
#211 = APPROVAL_DATE_TIME ( #290, #231 ) ;
#212 = AXIS2_PLACEMENT_3D ( 'NONE', #109, #264, #51 ) ;
#213 = PERSON_AND_ORGANIZATION ( #262, #266 ) ;
#214 = PLANE ( 'NONE',  #162 ) ;
#215 = DIRECTION ( 'NONE',  ( 0.000000000000000000, -1.000000000000000000, 0.000000000000000000 ) ) ;
#216 = DIRECTION ( 'NONE',  ( 1.000000000000000000, 0.000000000000000000, -0.000000000000000000 ) ) ;
#217 = DIRECTION ( 'NONE',  ( 0.000000000000000000, 0.000000000000000000, 1.000000000000000000 ) ) ;
#218 = ORIENTED_EDGE ( 'NONE', *, *, #91, .T. ) ;
#219 = PERSON_AND_ORGANIZATION_ROLE ( 'design_supplier' ) ;
#220 = DIRECTION ( 'NONE',  ( -1.000000000000000000, 0.000000000000000000, 0.000000000000000000 ) ) ;
#221 = CARTESIAN_POINT ( 'NONE',  ( -4.500000000000000000, 0.000000000000000000, 105.0000000000000142 ) ) ;
#222 = ORIENTED_EDGE ( 'NONE', *, *, #3, .T. ) ;
#223 = CC_DESIGN_APPROVAL ( #231, ( #2 ) ) ;
#224 = DIRECTION ( 'NONE',  ( -0.000000000000000000, -0.000000000000000000, -1.000000000000000000 ) ) ;
#225 = VERTEX_POINT ( 'NONE', #150 ) ;
#226 = PRODUCT_DEFINITION_SHAPE ( 'NONE', 'NONE',  #108 ) ;
#227 = AXIS2_PLACEMENT_3D ( 'NONE', #103, #277, #113 ) ;
#228 = VERTEX_POINT ( 'NONE', #221 ) ;
#229 = AXIS2_PLACEMENT_3D ( 'NONE', #244, #289, #54 ) ;
#230 = ADVANCED_FACE ( 'NONE', ( #299 ), #12, .T. ) ;
#231 = APPROVAL ( #288, 'NEURÈENÝ' ) ;
#232 = APPROVAL_PERSON_ORGANIZATION ( #98, #231, #238 ) ;
#233 = ADVANCED_FACE ( 'NONE', ( #71 ), #261, .T. ) ;
#234 = DATE_TIME_ROLE ( 'classification_date' ) ;
#235 = APPROVAL_ROLE ( '' ) ;
#236 = LINE ( 'NONE', #25, #65 ) ;
#237 = AXIS2_PLACEMENT_3D ( 'NONE', #15, #274, #110 ) ;
#238 = APPROVAL_ROLE ( '' ) ;
#239 = DIRECTION ( 'NONE',  ( 0.000000000000000000, 0.000000000000000000, 1.000000000000000000 ) ) ;
#240 = CARTESIAN_POINT ( 'NONE',  ( -4.699999999999999289, 5.755839955992558669E-16, 4.999999999999998224 ) ) ;
#241 = ORIENTED_EDGE ( 'NONE', *, *, #257, .F. ) ;
#242 = CALENDAR_DATE ( 2022, 7, 7 ) ;
#243 = FACE_OUTER_BOUND ( 'NONE', #202, .T. ) ;
#244 = CARTESIAN_POINT ( 'NONE',  ( 0.000000000000000000, 0.000000000000000000, 5.199999999999996625 ) ) ;
#245 = EDGE_LOOP ( 'NONE', ( #176, #184 ) ) ;
#246 = CARTESIAN_POINT ( 'NONE',  ( 0.000000000000000000, 0.000000000000000000, 5.000000000000000000 ) ) ;
#247 = LINE ( 'NONE', #269, #296 ) ;
#248 = EDGE_LOOP ( 'NONE', ( #173, #111, #154, #18 ) ) ;
#249 = LOCAL_TIME ( 14, 30, 30.00000000000000000, #117 ) ;
#250 = ORIENTED_EDGE ( 'NONE', *, *, #93, .F. ) ;
#251 = CIRCLE ( 'NONE', #207, 4.500000000000000000 ) ;
#252 = CIRCLE ( 'NONE', #129, 4.699999999999999289 ) ;
#253 = CIRCLE ( 'NONE', #39, 7.000000000000000000 ) ;
#254 = EDGE_CURVE ( 'NONE', #228, #132, #104, .T. ) ;
#255 = TOROIDAL_SURFACE ( 'NONE', #134, 4.699999999999999289, 0.2000000000000000111 ) ;
#256 = CC_DESIGN_APPROVAL ( #90, ( #108 ) ) ;
#257 = EDGE_CURVE ( 'NONE', #228, #270, #149, .T. ) ;
#258 = EDGE_CURVE ( 'NONE', #270, #128, #137, .T. ) ;
#259 = APPROVAL_DATE_TIME ( #286, #19 ) ;
#260 = CARTESIAN_POINT ( 'NONE',  ( 0.000000000000000000, 0.000000000000000000, 5.000000000000000000 ) ) ;
#261 = CYLINDRICAL_SURFACE ( 'NONE', #284, 4.500000000000000000 ) ;
#262 = PERSON ( 'NEURÈENÝ', 'NEURÈENÝ', 'NEURÈENÝ', ('NEURÈENÝ'), ('NEURÈENÝ'), ('NEURÈENÝ') ) ;
#263 = PERSON_AND_ORGANIZATION ( #262, #266 ) ;
#264 = DIRECTION ( 'NONE',  ( 0.000000000000000000, 0.000000000000000000, 1.000000000000000000 ) ) ;
#265 = DIRECTION ( 'NONE',  ( 1.000000000000000000, 0.000000000000000000, 0.000000000000000000 ) ) ;
#266 = ORGANIZATION ( 'NEURÈENÝ', 'NEURÈENÝ', '' ) ;
#267 = ORIENTED_EDGE ( 'NONE', *, *, #181, .F. ) ;
#268 = DIRECTION ( 'NONE',  ( 0.000000000000000000, 0.000000000000000000, 1.000000000000000000 ) ) ;
#269 = CARTESIAN_POINT ( 'NONE',  ( -7.000000000000000000, 0.000000000000000000, 5.000000000000000000 ) ) ;
#270 = VERTEX_POINT ( 'NONE', #199 ) ;
#271 = AXIS2_PLACEMENT_3D ( 'NONE', #79, #215, #193 ) ;
#272 = CARTESIAN_POINT ( 'NONE',  ( 0.000000000000000000, 0.000000000000000000, 105.0000000000000142 ) ) ;
#273 = ADVANCED_FACE ( 'NONE', ( #243 ), #171, .T. ) ;
#274 = DIRECTION ( 'NONE',  ( -0.000000000000000000, -0.000000000000000000, -1.000000000000000000 ) ) ;
#275 = VERTEX_POINT ( 'NONE', #119 ) ;
#276 = DIRECTION ( 'NONE',  ( -0.000000000000000000, -0.000000000000000000, -1.000000000000000000 ) ) ;
#277 = DIRECTION ( 'NONE',  ( -0.000000000000000000, -0.000000000000000000, -1.000000000000000000 ) ) ;
#278 = LOCAL_TIME ( 14, 30, 30.00000000000000000, #5 ) ;
#279 = DESIGN_CONTEXT ( 'detailed design', #187, 'design' ) ;
#280 = CARTESIAN_POINT ( 'NONE',  ( 0.000000000000000000, 0.000000000000000000, 5.199999999999996625 ) ) ;
#281 = VERTEX_POINT ( 'NONE', #122 ) ;
#282 = CC_DESIGN_APPROVAL ( #19, ( #287 ) ) ;
#283 = AXIS2_PLACEMENT_3D ( 'NONE', #201, #83, #102 ) ;
#284 = AXIS2_PLACEMENT_3D ( 'NONE', #169, #276, #7 ) ;
#285 = ADVANCED_FACE ( 'NONE', ( #99 ), #34, .T. ) ;
#286 = DATE_AND_TIME ( #101, #278 ) ;
#287 = PRODUCT_DEFINITION_FORMATION_WITH_SPECIFIED_SOURCE ( 'LIBOVOLNÝ', '', #59, .NOT_KNOWN. ) ;
#288 = APPROVAL_STATUS ( 'not_yet_approved' ) ;
#289 = DIRECTION ( 'NONE',  ( 0.000000000000000000, 0.000000000000000000, 1.000000000000000000 ) ) ;
#290 = DATE_AND_TIME ( #242, #138 ) ;
#291 = ADVANCED_FACE ( 'NONE', ( #130, #175 ), #214, .T. ) ;
#292 = AXIS2_PLACEMENT_3D ( 'NONE', #28, #31, #144 ) ;
#293 = FACE_OUTER_BOUND ( 'NONE', #13, .T. ) ;
#294 = CALENDAR_DATE ( 2022, 7, 7 ) ;
#295 = CARTESIAN_POINT ( 'NONE',  ( 0.000000000000000000, 0.000000000000000000, 5.000000000000000000 ) ) ;
#296 = VECTOR ( 'NONE', #224, 1000.000000000000000 ) ;
#297 = PLANE ( 'NONE',  #200 ) ;
#298 = ORIENTED_EDGE ( 'NONE', *, *, #3, .F. ) ;
#299 = FACE_OUTER_BOUND ( 'NONE', #57, .T. ) ;
#300 = VERTEX_POINT ( 'NONE', #26 ) ;
#301 = DIRECTION ( 'NONE',  ( 1.000000000000000000, 0.000000000000000000, 0.000000000000000000 ) ) ;
#302 = CARTESIAN_POINT ( 'NONE',  ( 0.000000000000000000, 0.000000000000000000, 0.000000000000000000 ) ) ;
#303 = ORIENTED_EDGE ( 'NONE', *, *, #93, .T. ) ;
#304 = EDGE_CURVE ( 'NONE', #136, #133, #252, .T. ) ;
#305 = CC_DESIGN_PERSON_AND_ORGANIZATION_ASSIGNMENT ( #194, #191, ( #287 ) ) ;
#306 = DIRECTION ( 'NONE',  ( -1.000000000000000000, 1.224646799147353454E-16, 0.000000000000000000 ) ) ;
#307 = ORIENTED_EDGE ( 'NONE', *, *, #163, .F. ) ;
ENDSEC;
END-ISO-10303-21;
