ISO-10303-21;
HEADER;
FILE_DESCRIPTION (( 'STEP AP203' ),
    '1' );
FILE_NAME ('b052.STEP',
    '2023-02-12T11:00:01',
    ( '' ),
    ( '' ),
    'SwSTEP 2.0',
    'SolidWorks 2019',
    '' );
FILE_SCHEMA (( 'CONFIG_CONTROL_DESIGN' ));
ENDSEC;

DATA;
#1 = DIRECTION ( 'NONE',  ( 1.000000000000000000, 0.000000000000000000, -0.000000000000000000 ) ) ;
#2 = CLOSED_SHELL ( 'NONE', ( #94, #8, #243, #137, #212, #104, #39 ) ) ;
#3 = APPROVAL_PERSON_ORGANIZATION ( #191, #148, #141 ) ;
#4 = CARTESIAN_POINT ( 'NONE',  ( 8.000000000000000000, 9.797174393178825657E-16, 0.000000000000000000 ) ) ;
#5 = DIRECTION ( 'NONE',  ( -0.000000000000000000, -0.000000000000000000, -1.000000000000000000 ) ) ;
#6 = PERSON_AND_ORGANIZATION ( #54, #17 ) ;
#7 = VECTOR ( 'NONE', #112, 1000.000000000000000 ) ;
#8 = ADVANCED_FACE ( 'NONE', ( #73 ), #147, .T. ) ;
#9 = COORDINATED_UNIVERSAL_TIME_OFFSET ( 1, 0, .AHEAD. ) ;
#10 = EDGE_CURVE ( 'NONE', #247, #65, #132, .T. ) ;
#11 = LOCAL_TIME ( 12, 0, 1.000000000000000000, #138 ) ;
#12 = VERTEX_POINT ( 'NONE', #40 ) ;
#13 = DIRECTION ( 'NONE',  ( -1.000000000000000000, 0.000000000000000000, 0.000000000000000000 ) ) ;
#14 = CIRCLE ( 'NONE', #213, 5.000000000000000000 ) ;
#15 = ORIENTED_EDGE ( 'NONE', *, *, #90, .F. ) ;
#16 = APPLICATION_PROTOCOL_DEFINITION ( 'international standard', 'config_control_design', 1994, #35 ) ;
#17 = ORGANIZATION ( 'NEURÈENÝ', 'NEURÈENÝ', '' ) ;
#18 = DIRECTION ( 'NONE',  ( 1.000000000000000000, 0.000000000000000000, 0.000000000000000000 ) ) ;
#19 = DIRECTION ( 'NONE',  ( 0.000000000000000000, 0.000000000000000000, 1.000000000000000000 ) ) ;
#20 = COORDINATED_UNIVERSAL_TIME_OFFSET ( 1, 0, .AHEAD. ) ;
#21 = EDGE_CURVE ( 'NONE', #49, #215, #37, .T. ) ;
#22 = APPLICATION_CONTEXT ( 'configuration controlled 3d designs of mechanical parts and assemblies' ) ;
#23 = APPROVAL_STATUS ( 'not_yet_approved' ) ;
#24 = DIRECTION ( 'NONE',  ( 0.000000000000000000, 0.000000000000000000, 1.000000000000000000 ) ) ;
#25 = LOCAL_TIME ( 12, 0, 1.000000000000000000, #9 ) ;
#26 = ORIENTED_EDGE ( 'NONE', *, *, #237, .F. ) ;
#27 = AXIS2_PLACEMENT_3D ( 'NONE', #198, #110, #161 ) ;
#28 = ORIENTED_EDGE ( 'NONE', *, *, #192, .T. ) ;
#29 = ORIENTED_EDGE ( 'NONE', *, *, #117, .F. ) ;
#30 = CIRCLE ( 'NONE', #208, 8.000000000000000000 ) ;
#31 = ORIENTED_EDGE ( 'NONE', *, *, #187, .T. ) ;
#32 = APPROVAL ( #174, 'NEURÈENÝ' ) ;
#33 =( NAMED_UNIT ( * ) PLANE_ANGLE_UNIT ( ) SI_UNIT ( $, .RADIAN. ) );
#34 = ORIENTED_EDGE ( 'NONE', *, *, #210, .T. ) ;
#35 = APPLICATION_CONTEXT ( 'configuration controlled 3d designs of mechanical parts and assemblies' ) ;
#36 = CC_DESIGN_APPROVAL ( #32, ( #66 ) ) ;
#37 = CIRCLE ( 'NONE', #124, 5.000000000000000000 ) ;
#38 = CC_DESIGN_SECURITY_CLASSIFICATION ( #66, ( #139 ) ) ;
#39 = ADVANCED_FACE ( 'NONE', ( #231 ), #180, .T. ) ;
#40 = CARTESIAN_POINT ( 'NONE',  ( -8.000000000000000000, 0.000000000000000000, 0.000000000000000000 ) ) ;
#41 = DATE_TIME_ROLE ( 'creation_date' ) ;
#42 = LINE ( 'NONE', #95, #248 ) ;
#43 = EDGE_CURVE ( 'NONE', #45, #81, #172, .T. ) ;
#44 = CALENDAR_DATE ( 2023, 12, 2 ) ;
#45 = VERTEX_POINT ( 'NONE', #125 ) ;
#46 = CC_DESIGN_APPROVAL ( #217, ( #181 ) ) ;
#47 = FACE_OUTER_BOUND ( 'NONE', #230, .T. ) ;
#48 = CARTESIAN_POINT ( 'NONE',  ( -8.000000000000000000, 0.000000000000000000, 5.000000000000000000 ) ) ;
#49 = VERTEX_POINT ( 'NONE', #214 ) ;
#50 = PLANE ( 'NONE',  #216 ) ;
#51 = PERSON_AND_ORGANIZATION ( #54, #17 ) ;
#52 = CIRCLE ( 'NONE', #236, 8.000000000000000000 ) ;
#53 = ORIENTED_EDGE ( 'NONE', *, *, #10, .F. ) ;
#54 = PERSON ( 'NEURÈENÝ', 'NEURÈENÝ', 'NEURÈENÝ', ('NEURÈENÝ'), ('NEURÈENÝ'), ('NEURÈENÝ') ) ;
#55 = CARTESIAN_POINT ( 'NONE',  ( 0.000000000000000000, 0.000000000000000000, 500.0000000000000000 ) ) ;
#56 = CC_DESIGN_PERSON_AND_ORGANIZATION_ASSIGNMENT ( #6, #114, ( #139 ) ) ;
#57 = CARTESIAN_POINT ( 'NONE',  ( 0.000000000000000000, 0.000000000000000000, 0.000000000000000000 ) ) ;
#58 = CYLINDRICAL_SURFACE ( 'NONE', #101, 5.000000000000000000 ) ;
#59 = COORDINATED_UNIVERSAL_TIME_OFFSET ( 1, 0, .AHEAD. ) ;
#60 = AXIS2_PLACEMENT_3D ( 'NONE', #55, #173, #119 ) ;
#61 = FACE_OUTER_BOUND ( 'NONE', #150, .T. ) ;
#62 = DIRECTION ( 'NONE',  ( -0.000000000000000000, -0.000000000000000000, -1.000000000000000000 ) ) ;
#63 = ORIENTED_EDGE ( 'NONE', *, *, #210, .F. ) ;
#64 = CARTESIAN_POINT ( 'NONE',  ( 0.000000000000000000, 0.000000000000000000, 5.000000000000000000 ) ) ;
#65 = VERTEX_POINT ( 'NONE', #4 ) ;
#66 = SECURITY_CLASSIFICATION ( '', '', #97 ) ;
#67 = VECTOR ( 'NONE', #5, 1000.000000000000000 ) ;
#68 = CALENDAR_DATE ( 2023, 12, 2 ) ;
#69 = CC_DESIGN_PERSON_AND_ORGANIZATION_ASSIGNMENT ( #126, #86, ( #171 ) ) ;
#70 = AXIS2_PLACEMENT_3D ( 'NONE', #91, #241, #128 ) ;
#71 = CARTESIAN_POINT ( 'NONE',  ( 0.000000000000000000, 0.000000000000000000, 5.000000000000000000 ) ) ;
#72 = LOCAL_TIME ( 12, 0, 1.000000000000000000, #20 ) ;
#73 = FACE_OUTER_BOUND ( 'NONE', #211, .T. ) ;
#74 = DIRECTION ( 'NONE',  ( 0.000000000000000000, 0.000000000000000000, 1.000000000000000000 ) ) ;
#75 = ORIENTED_EDGE ( 'NONE', *, *, #21, .T. ) ;
#76 = DATE_TIME_ROLE ( 'classification_date' ) ;
#77 = CARTESIAN_POINT ( 'NONE',  ( 0.000000000000000000, 0.000000000000000000, 0.000000000000000000 ) ) ;
#78 = CARTESIAN_POINT ( 'NONE',  ( -8.000000000000000000, 0.000000000000000000, 5.000000000000000000 ) ) ;
#79 = DIRECTION ( 'NONE',  ( 1.000000000000000000, 0.000000000000000000, 0.000000000000000000 ) ) ;
#80 = FACE_BOUND ( 'NONE', #251, .T. ) ;
#81 = VERTEX_POINT ( 'NONE', #144 ) ;
#82 =( NAMED_UNIT ( * ) SI_UNIT ( $, .STERADIAN. ) SOLID_ANGLE_UNIT ( ) );
#83 = EDGE_LOOP ( 'NONE', ( #167, #252, #31, #28 ) ) ;
#84 = SHAPE_DEFINITION_REPRESENTATION ( #133, #153 ) ;
#85 = DATE_AND_TIME ( #195, #235 ) ;
#86 = PERSON_AND_ORGANIZATION_ROLE ( 'design_owner' ) ;
#87 = CARTESIAN_POINT ( 'NONE',  ( 0.000000000000000000, 0.000000000000000000, 500.0000000000000000 ) ) ;
#88 = CARTESIAN_POINT ( 'NONE',  ( -5.000000000000000000, 0.000000000000000000, 500.0000000000000000 ) ) ;
#89 = CARTESIAN_POINT ( 'NONE',  ( 8.000000000000000000, 9.797174393178825657E-16, 5.000000000000000000 ) ) ;
#90 = EDGE_CURVE ( 'NONE', #12, #65, #151, .T. ) ;
#91 = CARTESIAN_POINT ( 'NONE',  ( 0.000000000000000000, 0.000000000000000000, 5.000000000000000000 ) ) ;
#92 = PERSON_AND_ORGANIZATION ( #54, #17 ) ;
#93 = APPROVAL_PERSON_ORGANIZATION ( #176, #217, #253 ) ;
#94 = ADVANCED_FACE ( 'NONE', ( #246 ), #103, .T. ) ;
#95 = CARTESIAN_POINT ( 'NONE',  ( 5.000000000000000000, 6.123233995736766282E-16, 500.0000000000000000 ) ) ;
#96 = CYLINDRICAL_SURFACE ( 'NONE', #183, 8.000000000000000000 ) ;
#97 = SECURITY_CLASSIFICATION_LEVEL ( 'unclassified' ) ;
#98 = LINE ( 'NONE', #48, #135 ) ;
#99 = DIRECTION ( 'NONE',  ( 0.000000000000000000, 0.000000000000000000, 1.000000000000000000 ) ) ;
#100 = VERTEX_POINT ( 'NONE', #78 ) ;
#101 = AXIS2_PLACEMENT_3D ( 'NONE', #193, #134, #146 ) ;
#102 = ORIENTED_EDGE ( 'NONE', *, *, #43, .F. ) ;
#103 = CYLINDRICAL_SURFACE ( 'NONE', #60, 5.000000000000000000 ) ;
#104 = ADVANCED_FACE ( 'NONE', ( #227 ), #58, .T. ) ;
#105 = EDGE_LOOP ( 'NONE', ( #222, #207, #234, #159 ) ) ;
#106 = CC_DESIGN_APPROVAL ( #148, ( #139 ) ) ;
#107 = APPROVAL_ROLE ( '' ) ;
#108 = APPROVAL_STATUS ( 'not_yet_approved' ) ;
#109 = LOCAL_TIME ( 12, 0, 1.000000000000000000, #184 ) ;
#110 = DIRECTION ( 'NONE',  ( 0.000000000000000000, 0.000000000000000000, 1.000000000000000000 ) ) ;
#111 = DIRECTION ( 'NONE',  ( -0.000000000000000000, -0.000000000000000000, -1.000000000000000000 ) ) ;
#112 = DIRECTION ( 'NONE',  ( -0.000000000000000000, -0.000000000000000000, -1.000000000000000000 ) ) ;
#113 = PERSON_AND_ORGANIZATION_ROLE ( 'creator' ) ;
#114 = PERSON_AND_ORGANIZATION_ROLE ( 'creator' ) ;
#115 = AXIS2_PLACEMENT_3D ( 'NONE', #77, #24, #79 ) ;
#116 = DIRECTION ( 'NONE',  ( 1.000000000000000000, 0.000000000000000000, 0.000000000000000000 ) ) ;
#117 = EDGE_CURVE ( 'NONE', #100, #247, #52, .T. ) ;
#118 = DIRECTION ( 'NONE',  ( 1.000000000000000000, 0.000000000000000000, 0.000000000000000000 ) ) ;
#119 = DIRECTION ( 'NONE',  ( -1.000000000000000000, 0.000000000000000000, 0.000000000000000000 ) ) ;
#120 = EDGE_LOOP ( 'NONE', ( #242, #75 ) ) ;
#121 = DIRECTION ( 'NONE',  ( -0.000000000000000000, -0.000000000000000000, -1.000000000000000000 ) ) ;
#122 = UNCERTAINTY_MEASURE_WITH_UNIT (LENGTH_MEASURE( 1.000000000000000082E-05 ), #157, 'distance_accuracy_value', 'NONE');
#123 = DIRECTION ( 'NONE',  ( 0.000000000000000000, 0.000000000000000000, 1.000000000000000000 ) ) ;
#124 = AXIS2_PLACEMENT_3D ( 'NONE', #238, #127, #179 ) ;
#125 = CARTESIAN_POINT ( 'NONE',  ( 5.000000000000000000, 6.123233995736766282E-16, 5.000000000000000000 ) ) ;
#126 = PERSON_AND_ORGANIZATION ( #54, #17 ) ;
#127 = DIRECTION ( 'NONE',  ( 0.000000000000000000, 0.000000000000000000, 1.000000000000000000 ) ) ;
#128 = DIRECTION ( 'NONE',  ( -1.000000000000000000, 0.000000000000000000, 0.000000000000000000 ) ) ;
#129 = CC_DESIGN_PERSON_AND_ORGANIZATION_ASSIGNMENT ( #92, #240, ( #139 ) ) ;
#130 = PERSON_AND_ORGANIZATION ( #54, #17 ) ;
#131 = MANIFOLD_SOLID_BREP ( 'Pøidat vysunutím3', #2 ) ;
#132 = LINE ( 'NONE', #89, #7 ) ;
#133 = PRODUCT_DEFINITION_SHAPE ( 'NONE', 'NONE',  #181 ) ;
#134 = DIRECTION ( 'NONE',  ( -0.000000000000000000, -0.000000000000000000, -1.000000000000000000 ) ) ;
#135 = VECTOR ( 'NONE', #62, 1000.000000000000000 ) ;
#136 = DIRECTION ( 'NONE',  ( 0.000000000000000000, 0.000000000000000000, 1.000000000000000000 ) ) ;
#137 = ADVANCED_FACE ( 'NONE', ( #80, #47 ), #50, .T. ) ;
#138 = COORDINATED_UNIVERSAL_TIME_OFFSET ( 1, 0, .AHEAD. ) ;
#139 = PRODUCT_DEFINITION_FORMATION_WITH_SPECIFIED_SOURCE ( 'LIBOVOLNÝ', '', #171, .NOT_KNOWN. ) ;
#140 = LINE ( 'NONE', #165, #67 ) ;
#141 = APPROVAL_ROLE ( '' ) ;
#142 = PERSON_AND_ORGANIZATION ( #54, #17 ) ;
#143 = DIRECTION ( 'NONE',  ( 1.000000000000000000, 0.000000000000000000, 0.000000000000000000 ) ) ;
#144 = CARTESIAN_POINT ( 'NONE',  ( -5.000000000000000000, 0.000000000000000000, 5.000000000000000000 ) ) ;
#145 = CIRCLE ( 'NONE', #228, 8.000000000000000000 ) ;
#146 = DIRECTION ( 'NONE',  ( -1.000000000000000000, 0.000000000000000000, 0.000000000000000000 ) ) ;
#147 = CYLINDRICAL_SURFACE ( 'NONE', #70, 8.000000000000000000 ) ;
#148 = APPROVAL ( #23, 'NEURÈENÝ' ) ;
#149 = DIRECTION ( 'NONE',  ( 0.000000000000000000, 0.000000000000000000, 1.000000000000000000 ) ) ;
#150 = EDGE_LOOP ( 'NONE', ( #15, #26 ) ) ;
#151 = CIRCLE ( 'NONE', #239, 8.000000000000000000 ) ;
#152 = CIRCLE ( 'NONE', #233, 5.000000000000000000 ) ;
#153 = ADVANCED_BREP_SHAPE_REPRESENTATION ( 'b052', ( #131, #115 ), #224 ) ;
#154 = DIRECTION ( 'NONE',  ( 0.000000000000000000, 0.000000000000000000, 1.000000000000000000 ) ) ;
#155 = CARTESIAN_POINT ( 'NONE',  ( 8.000000000000000000, 9.797174393178825657E-16, 5.000000000000000000 ) ) ;
#156 = ORIENTED_EDGE ( 'NONE', *, *, #237, .T. ) ;
#157 =( LENGTH_UNIT ( ) NAMED_UNIT ( * ) SI_UNIT ( .MILLI., .METRE. ) );
#158 = EDGE_LOOP ( 'NONE', ( #53, #29, #34, #199 ) ) ;
#159 = ORIENTED_EDGE ( 'NONE', *, *, #187, .F. ) ;
#160 = APPROVAL_DATE_TIME ( #85, #32 ) ;
#161 = DIRECTION ( 'NONE',  ( 1.000000000000000000, 0.000000000000000000, -0.000000000000000000 ) ) ;
#162 = ORIENTED_EDGE ( 'NONE', *, *, #192, .F. ) ;
#163 = EDGE_CURVE ( 'NONE', #49, #45, #42, .T. ) ;
#164 = DIRECTION ( 'NONE',  ( 0.000000000000000000, 0.000000000000000000, 1.000000000000000000 ) ) ;
#165 = CARTESIAN_POINT ( 'NONE',  ( -5.000000000000000000, 0.000000000000000000, 500.0000000000000000 ) ) ;
#166 = DATE_AND_TIME ( #202, #11 ) ;
#167 = ORIENTED_EDGE ( 'NONE', *, *, #163, .F. ) ;
#168 = CC_DESIGN_DATE_AND_TIME_ASSIGNMENT ( #190, #76, ( #66 ) ) ;
#169 = APPROVAL_DATE_TIME ( #166, #217 ) ;
#170 = PERSON_AND_ORGANIZATION_ROLE ( 'classification_officer' ) ;
#171 = PRODUCT ( 'b052', 'b052', '', ( #219 ) ) ;
#172 = CIRCLE ( 'NONE', #194, 5.000000000000000000 ) ;
#173 = DIRECTION ( 'NONE',  ( -0.000000000000000000, -0.000000000000000000, -1.000000000000000000 ) ) ;
#174 = APPROVAL_STATUS ( 'not_yet_approved' ) ;
#175 = ORIENTED_EDGE ( 'NONE', *, *, #10, .T. ) ;
#176 = PERSON_AND_ORGANIZATION ( #54, #17 ) ;
#177 = ORIENTED_EDGE ( 'NONE', *, *, #196, .F. ) ;
#178 = DIRECTION ( 'NONE',  ( 1.000000000000000000, 0.000000000000000000, -0.000000000000000000 ) ) ;
#179 = DIRECTION ( 'NONE',  ( 1.000000000000000000, 0.000000000000000000, 0.000000000000000000 ) ) ;
#180 = PLANE ( 'NONE',  #223 ) ;
#181 = PRODUCT_DEFINITION ( 'NEZNÁMÝ', '', #139, #255 ) ;
#182 = CARTESIAN_POINT ( 'NONE',  ( 0.000000000000000000, 0.000000000000000000, 5.000000000000000000 ) ) ;
#183 = AXIS2_PLACEMENT_3D ( 'NONE', #206, #121, #13 ) ;
#184 = COORDINATED_UNIVERSAL_TIME_OFFSET ( 1, 0, .AHEAD. ) ;
#185 = DATE_AND_TIME ( #201, #25 ) ;
#186 = APPLICATION_PROTOCOL_DEFINITION ( 'international standard', 'config_control_design', 1994, #22 ) ;
#187 = EDGE_CURVE ( 'NONE', #215, #81, #140, .T. ) ;
#188 = FACE_OUTER_BOUND ( 'NONE', #158, .T. ) ;
#189 = APPROVAL_DATE_TIME ( #185, #148 ) ;
#190 = DATE_AND_TIME ( #44, #72 ) ;
#191 = PERSON_AND_ORGANIZATION ( #54, #17 ) ;
#192 = EDGE_CURVE ( 'NONE', #81, #45, #14, .T. ) ;
#193 = CARTESIAN_POINT ( 'NONE',  ( 0.000000000000000000, 0.000000000000000000, 500.0000000000000000 ) ) ;
#194 = AXIS2_PLACEMENT_3D ( 'NONE', #182, #164, #218 ) ;
#195 = CALENDAR_DATE ( 2023, 12, 2 ) ;
#196 = EDGE_CURVE ( 'NONE', #247, #100, #145, .T. ) ;
#197 = CARTESIAN_POINT ( 'NONE',  ( 0.000000000000000000, 0.000000000000000000, 500.0000000000000000 ) ) ;
#198 = CARTESIAN_POINT ( 'NONE',  ( 0.000000000000000000, 0.000000000000000000, 0.000000000000000000 ) ) ;
#199 = ORIENTED_EDGE ( 'NONE', *, *, #90, .T. ) ;
#200 = PRODUCT_RELATED_PRODUCT_CATEGORY ( 'detail', '', ( #171 ) ) ;
#201 = CALENDAR_DATE ( 2023, 12, 2 ) ;
#202 = CALENDAR_DATE ( 2023, 12, 2 ) ;
#203 = APPROVAL_PERSON_ORGANIZATION ( #51, #32, #107 ) ;
#204 = CC_DESIGN_DATE_AND_TIME_ASSIGNMENT ( #244, #41, ( #181 ) ) ;
#205 = ORIENTED_EDGE ( 'NONE', *, *, #196, .T. ) ;
#206 = CARTESIAN_POINT ( 'NONE',  ( 0.000000000000000000, 0.000000000000000000, 5.000000000000000000 ) ) ;
#207 = ORIENTED_EDGE ( 'NONE', *, *, #163, .T. ) ;
#208 = AXIS2_PLACEMENT_3D ( 'NONE', #57, #99, #116 ) ;
#209 = CARTESIAN_POINT ( 'NONE',  ( 0.000000000000000000, 0.000000000000000000, 5.000000000000000000 ) ) ;
#210 = EDGE_CURVE ( 'NONE', #100, #12, #98, .T. ) ;
#211 = EDGE_LOOP ( 'NONE', ( #177, #175, #156, #63 ) ) ;
#212 = ADVANCED_FACE ( 'NONE', ( #61 ), #229, .F. ) ;
#213 = AXIS2_PLACEMENT_3D ( 'NONE', #71, #74, #143 ) ;
#214 = CARTESIAN_POINT ( 'NONE',  ( 5.000000000000000000, 6.123233995736766282E-16, 500.0000000000000000 ) ) ;
#215 = VERTEX_POINT ( 'NONE', #88 ) ;
#216 = AXIS2_PLACEMENT_3D ( 'NONE', #64, #136, #178 ) ;
#217 = APPROVAL ( #108, 'NEURÈENÝ' ) ;
#218 = DIRECTION ( 'NONE',  ( 1.000000000000000000, 0.000000000000000000, 0.000000000000000000 ) ) ;
#219 = MECHANICAL_CONTEXT ( 'NONE', #22, 'mechanical' ) ;
#220 = CARTESIAN_POINT ( 'NONE',  ( 0.000000000000000000, 0.000000000000000000, 5.000000000000000000 ) ) ;
#221 = DIRECTION ( 'NONE',  ( 0.000000000000000000, 0.000000000000000000, 1.000000000000000000 ) ) ;
#222 = ORIENTED_EDGE ( 'NONE', *, *, #21, .F. ) ;
#223 = AXIS2_PLACEMENT_3D ( 'NONE', #87, #19, #1 ) ;
#224 =( GEOMETRIC_REPRESENTATION_CONTEXT ( 3 ) GLOBAL_UNCERTAINTY_ASSIGNED_CONTEXT ( ( #122 ) ) GLOBAL_UNIT_ASSIGNED_CONTEXT ( ( #157, #33, #82 ) ) REPRESENTATION_CONTEXT ( 'NONE', 'WORKASPACE' ) );
#225 = DIRECTION ( 'NONE',  ( 1.000000000000000000, 0.000000000000000000, 0.000000000000000000 ) ) ;
#226 = CC_DESIGN_PERSON_AND_ORGANIZATION_ASSIGNMENT ( #142, #170, ( #66 ) ) ;
#227 = FACE_OUTER_BOUND ( 'NONE', #83, .T. ) ;
#228 = AXIS2_PLACEMENT_3D ( 'NONE', #220, #221, #118 ) ;
#229 = PLANE ( 'NONE',  #27 ) ;
#230 = EDGE_LOOP ( 'NONE', ( #232, #205 ) ) ;
#231 = FACE_OUTER_BOUND ( 'NONE', #120, .T. ) ;
#232 = ORIENTED_EDGE ( 'NONE', *, *, #117, .T. ) ;
#233 = AXIS2_PLACEMENT_3D ( 'NONE', #197, #123, #18 ) ;
#234 = ORIENTED_EDGE ( 'NONE', *, *, #43, .T. ) ;
#235 = LOCAL_TIME ( 12, 0, 1.000000000000000000, #59 ) ;
#236 = AXIS2_PLACEMENT_3D ( 'NONE', #209, #149, #225 ) ;
#237 = EDGE_CURVE ( 'NONE', #65, #12, #30, .T. ) ;
#238 = CARTESIAN_POINT ( 'NONE',  ( 0.000000000000000000, 0.000000000000000000, 500.0000000000000000 ) ) ;
#239 = AXIS2_PLACEMENT_3D ( 'NONE', #250, #154, #245 ) ;
#240 = PERSON_AND_ORGANIZATION_ROLE ( 'design_supplier' ) ;
#241 = DIRECTION ( 'NONE',  ( -0.000000000000000000, -0.000000000000000000, -1.000000000000000000 ) ) ;
#242 = ORIENTED_EDGE ( 'NONE', *, *, #254, .T. ) ;
#243 = ADVANCED_FACE ( 'NONE', ( #188 ), #96, .T. ) ;
#244 = DATE_AND_TIME ( #68, #109 ) ;
#245 = DIRECTION ( 'NONE',  ( 1.000000000000000000, 0.000000000000000000, 0.000000000000000000 ) ) ;
#246 = FACE_OUTER_BOUND ( 'NONE', #105, .T. ) ;
#247 = VERTEX_POINT ( 'NONE', #155 ) ;
#248 = VECTOR ( 'NONE', #111, 1000.000000000000000 ) ;
#249 = CC_DESIGN_PERSON_AND_ORGANIZATION_ASSIGNMENT ( #130, #113, ( #181 ) ) ;
#250 = CARTESIAN_POINT ( 'NONE',  ( 0.000000000000000000, 0.000000000000000000, 0.000000000000000000 ) ) ;
#251 = EDGE_LOOP ( 'NONE', ( #162, #102 ) ) ;
#252 = ORIENTED_EDGE ( 'NONE', *, *, #254, .F. ) ;
#253 = APPROVAL_ROLE ( '' ) ;
#254 = EDGE_CURVE ( 'NONE', #215, #49, #152, .T. ) ;
#255 = DESIGN_CONTEXT ( 'detailed design', #35, 'design' ) ;
ENDSEC;
END-ISO-10303-21;
