ISO-10303-21;
HEADER;
FILE_DESCRIPTION (( 'STEP AP203' ),
    '1' );
FILE_NAME ('ac20.STEP',
    '2022-06-30T20:26:48',
    ( '' ),
    ( '' ),
    'SwSTEP 2.0',
    'SolidWorks 2019',
    '' );
FILE_SCHEMA (( 'CONFIG_CONTROL_DESIGN' ));
ENDSEC;

DATA;
#1 = DIRECTION ( 'NONE',  ( 0.000000000000000000, 0.000000000000000000, 1.000000000000000000 ) ) ;
#2 = CARTESIAN_POINT ( 'NONE',  ( 0.000000000000000000, 0.000000000000000000, 2.000000000000000000 ) ) ;
#3 = VERTEX_POINT ( 'NONE', #177 ) ;
#4 = FACE_OUTER_BOUND ( 'NONE', #118, .T. ) ;
#5 = APPROVAL_PERSON_ORGANIZATION ( #8, #84, #193 ) ;
#6 = FACE_OUTER_BOUND ( 'NONE', #160, .T. ) ;
#7 = AXIS2_PLACEMENT_3D ( 'NONE', #63, #44, #68 ) ;
#8 = PERSON_AND_ORGANIZATION ( #30, #77 ) ;
#9 = SECURITY_CLASSIFICATION ( '', '', #154 ) ;
#10 = CC_DESIGN_PERSON_AND_ORGANIZATION_ASSIGNMENT ( #111, #94, ( #92 ) ) ;
#11 = APPROVAL_DATE_TIME ( #131, #84 ) ;
#12 = PERSON_AND_ORGANIZATION ( #30, #77 ) ;
#13 = PRODUCT_DEFINITION ( 'NEZNÁMÝ', '', #92, #76 ) ;
#14 = CC_DESIGN_PERSON_AND_ORGANIZATION_ASSIGNMENT ( #153, #212, ( #92 ) ) ;
#15 = CARTESIAN_POINT ( 'NONE',  ( 0.000000000000000000, 0.000000000000000000, 2.000000000000000000 ) ) ;
#16 = AXIS2_PLACEMENT_3D ( 'NONE', #168, #147, #202 ) ;
#17 = ORIENTED_EDGE ( 'NONE', *, *, #137, .T. ) ;
#18 = EDGE_CURVE ( 'NONE', #236, #197, #78, .T. ) ;
#19 = DIRECTION ( 'NONE',  ( 0.000000000000000000, 0.000000000000000000, 1.000000000000000000 ) ) ;
#20 = ORIENTED_EDGE ( 'NONE', *, *, #97, .T. ) ;
#21 = CARTESIAN_POINT ( 'NONE',  ( 0.000000000000000000, 0.000000000000000000, 0.000000000000000000 ) ) ;
#22 = EDGE_LOOP ( 'NONE', ( #59, #20, #215, #79 ) ) ;
#23 = CARTESIAN_POINT ( 'NONE',  ( 2.000000000000000000, 2.449293598294706414E-16, 2.000000000000000000 ) ) ;
#24 = DIRECTION ( 'NONE',  ( -1.000000000000000000, 0.000000000000000000, 0.000000000000000000 ) ) ;
#25 = COORDINATED_UNIVERSAL_TIME_OFFSET ( 1, 0, .AHEAD. ) ;
#26 = CIRCLE ( 'NONE', #237, 2.000000000000000000 ) ;
#27 = PERSON_AND_ORGANIZATION ( #30, #77 ) ;
#28 = ADVANCED_FACE ( 'NONE', ( #123 ), #136, .T. ) ;
#29 = PERSON_AND_ORGANIZATION_ROLE ( 'design_owner' ) ;
#30 = PERSON ( 'NEURÈENÝ', 'NEURÈENÝ', 'NEURÈENÝ', ('NEURÈENÝ'), ('NEURÈENÝ'), ('NEURÈENÝ') ) ;
#31 = CC_DESIGN_APPROVAL ( #250, ( #9 ) ) ;
#32 = PERSON_AND_ORGANIZATION ( #30, #77 ) ;
#33 = ADVANCED_BREP_SHAPE_REPRESENTATION ( 'ac20', ( #192, #54 ), #158 ) ;
#34 = APPLICATION_CONTEXT ( 'configuration controlled 3d designs of mechanical parts and assemblies' ) ;
#35 = CC_DESIGN_DATE_AND_TIME_ASSIGNMENT ( #72, #231, ( #9 ) ) ;
#36 = APPROVAL_PERSON_ORGANIZATION ( #187, #250, #249 ) ;
#37 = ORIENTED_EDGE ( 'NONE', *, *, #71, .T. ) ;
#38 = CARTESIAN_POINT ( 'NONE',  ( 1.000000000000000000, 1.224646799147353207E-16, 2.000000000000000000 ) ) ;
#39 = EDGE_CURVE ( 'NONE', #199, #236, #195, .T. ) ;
#40 = CIRCLE ( 'NONE', #89, 1.000000000000000000 ) ;
#41 = EDGE_LOOP ( 'NONE', ( #183, #108, #254, #146 ) ) ;
#42 = DIRECTION ( 'NONE',  ( 1.000000000000000000, 0.000000000000000000, 0.000000000000000000 ) ) ;
#43 = EDGE_LOOP ( 'NONE', ( #175, #119, #140, #17 ) ) ;
#44 = DIRECTION ( 'NONE',  ( 0.000000000000000000, 0.000000000000000000, 1.000000000000000000 ) ) ;
#45 = DIRECTION ( 'NONE',  ( 1.000000000000000000, 0.000000000000000000, 0.000000000000000000 ) ) ;
#46 = CARTESIAN_POINT ( 'NONE',  ( 0.000000000000000000, 0.000000000000000000, 0.000000000000000000 ) ) ;
#47 = AXIS2_PLACEMENT_3D ( 'NONE', #104, #1, #178 ) ;
#48 = DIRECTION ( 'NONE',  ( -0.000000000000000000, -0.000000000000000000, -1.000000000000000000 ) ) ;
#49 = CARTESIAN_POINT ( 'NONE',  ( 2.000000000000000000, 2.449293598294706414E-16, 2.000000000000000000 ) ) ;
#50 = APPROVAL_STATUS ( 'not_yet_approved' ) ;
#51 = ADVANCED_FACE ( 'NONE', ( #126 ), #205, .T. ) ;
#52 = APPLICATION_PROTOCOL_DEFINITION ( 'international standard', 'config_control_design', 1994, #173 ) ;
#53 = APPROVAL_ROLE ( '' ) ;
#54 = AXIS2_PLACEMENT_3D ( 'NONE', #251, #210, #169 ) ;
#55 = EDGE_CURVE ( 'NONE', #218, #235, #138, .T. ) ;
#56 = DIRECTION ( 'NONE',  ( -1.000000000000000000, 0.000000000000000000, 0.000000000000000000 ) ) ;
#57 = EDGE_CURVE ( 'NONE', #3, #64, #128, .T. ) ;
#58 = DIRECTION ( 'NONE',  ( 1.000000000000000000, 0.000000000000000000, 0.000000000000000000 ) ) ;
#59 = ORIENTED_EDGE ( 'NONE', *, *, #39, .F. ) ;
#60 = CARTESIAN_POINT ( 'NONE',  ( 0.000000000000000000, 0.000000000000000000, 102.0000000000000142 ) ) ;
#61 = AXIS2_PLACEMENT_3D ( 'NONE', #167, #206, #243 ) ;
#62 = CARTESIAN_POINT ( 'NONE',  ( -2.000000000000000000, 0.000000000000000000, 2.000000000000000000 ) ) ;
#63 = CARTESIAN_POINT ( 'NONE',  ( 0.000000000000000000, 0.000000000000000000, 2.000000000000000000 ) ) ;
#64 = VERTEX_POINT ( 'NONE', #180 ) ;
#65 = CARTESIAN_POINT ( 'NONE',  ( 0.000000000000000000, 0.000000000000000000, 2.000000000000000000 ) ) ;
#66 = CARTESIAN_POINT ( 'NONE',  ( 1.000000000000000000, 1.224646799147353207E-16, 102.0000000000000142 ) ) ;
#67 = APPROVAL ( #194, 'NEURÈENÝ' ) ;
#68 = DIRECTION ( 'NONE',  ( 1.000000000000000000, 0.000000000000000000, 0.000000000000000000 ) ) ;
#69 = AXIS2_PLACEMENT_3D ( 'NONE', #15, #223, #45 ) ;
#70 = SHAPE_DEFINITION_REPRESENTATION ( #246, #33 ) ;
#71 = EDGE_CURVE ( 'NONE', #218, #3, #156, .T. ) ;
#72 = DATE_AND_TIME ( #190, #225 ) ;
#73 = DATE_AND_TIME ( #96, #155 ) ;
#74 = DATE_AND_TIME ( #213, #200 ) ;
#75 = ADVANCED_FACE ( 'NONE', ( #107, #6 ), #129, .T. ) ;
#76 = DESIGN_CONTEXT ( 'detailed design', #34, 'design' ) ;
#77 = ORGANIZATION ( 'NEURÈENÝ', 'NEURÈENÝ', '' ) ;
#78 = LINE ( 'NONE', #62, #244 ) ;
#79 = ORIENTED_EDGE ( 'NONE', *, *, #18, .F. ) ;
#80 = ORIENTED_EDGE ( 'NONE', *, *, #39, .T. ) ;
#81 = DIRECTION ( 'NONE',  ( -0.000000000000000000, -0.000000000000000000, -1.000000000000000000 ) ) ;
#82 = DIRECTION ( 'NONE',  ( -1.000000000000000000, 0.000000000000000000, 0.000000000000000000 ) ) ;
#83 = DIRECTION ( 'NONE',  ( 0.000000000000000000, 0.000000000000000000, 1.000000000000000000 ) ) ;
#84 = APPROVAL ( #50, 'NEURÈENÝ' ) ;
#85 = ORIENTED_EDGE ( 'NONE', *, *, #239, .F. ) ;
#86 = DIRECTION ( 'NONE',  ( 0.000000000000000000, 0.000000000000000000, 1.000000000000000000 ) ) ;
#87 = CC_DESIGN_APPROVAL ( #67, ( #13 ) ) ;
#88 = CARTESIAN_POINT ( 'NONE',  ( 0.000000000000000000, 0.000000000000000000, 0.000000000000000000 ) ) ;
#89 = AXIS2_PLACEMENT_3D ( 'NONE', #65, #220, #42 ) ;
#90 = COORDINATED_UNIVERSAL_TIME_OFFSET ( 1, 0, .AHEAD. ) ;
#91 = DATE_TIME_ROLE ( 'creation_date' ) ;
#92 = PRODUCT_DEFINITION_FORMATION_WITH_SPECIFIED_SOURCE ( 'LIBOVOLNÝ', '', #198, .NOT_KNOWN. ) ;
#93 = MECHANICAL_CONTEXT ( 'NONE', #173, 'mechanical' ) ;
#94 = PERSON_AND_ORGANIZATION_ROLE ( 'design_supplier' ) ;
#95 = PRODUCT_RELATED_PRODUCT_CATEGORY ( 'detail', '', ( #198 ) ) ;
#96 = CALENDAR_DATE ( 2022, 30, 6 ) ;
#97 = EDGE_CURVE ( 'NONE', #199, #241, #142, .T. ) ;
#98 = DIRECTION ( 'NONE',  ( -0.000000000000000000, -0.000000000000000000, -1.000000000000000000 ) ) ;
#99 = CLOSED_SHELL ( 'NONE', ( #143, #51, #28, #75, #233, #161, #116 ) ) ;
#100 = AXIS2_PLACEMENT_3D ( 'NONE', #60, #182, #120 ) ;
#101 = ORIENTED_EDGE ( 'NONE', *, *, #239, .T. ) ;
#102 =( LENGTH_UNIT ( ) NAMED_UNIT ( * ) SI_UNIT ( .MILLI., .METRE. ) );
#103 = ORIENTED_EDGE ( 'NONE', *, *, #114, .F. ) ;
#104 = CARTESIAN_POINT ( 'NONE',  ( 0.000000000000000000, 0.000000000000000000, 2.000000000000000000 ) ) ;
#105 = CARTESIAN_POINT ( 'NONE',  ( 0.000000000000000000, 0.000000000000000000, 2.000000000000000000 ) ) ;
#106 = CC_DESIGN_DATE_AND_TIME_ASSIGNMENT ( #73, #91, ( #13 ) ) ;
#107 = FACE_BOUND ( 'NONE', #164, .T. ) ;
#108 = ORIENTED_EDGE ( 'NONE', *, *, #55, .T. ) ;
#109 = CARTESIAN_POINT ( 'NONE',  ( -2.000000000000000000, 0.000000000000000000, 2.000000000000000000 ) ) ;
#110 = CARTESIAN_POINT ( 'NONE',  ( 1.000000000000000000, 1.224646799147353207E-16, 102.0000000000000142 ) ) ;
#111 = PERSON_AND_ORGANIZATION ( #30, #77 ) ;
#112 = PERSON_AND_ORGANIZATION_ROLE ( 'classification_officer' ) ;
#113 = COORDINATED_UNIVERSAL_TIME_OFFSET ( 1, 0, .AHEAD. ) ;
#114 = EDGE_CURVE ( 'NONE', #64, #235, #40, .T. ) ;
#115 = VECTOR ( 'NONE', #81, 1000.000000000000000 ) ;
#116 = ADVANCED_FACE ( 'NONE', ( #240 ), #186, .T. ) ;
#117 = UNCERTAINTY_MEASURE_WITH_UNIT (LENGTH_MEASURE( 1.000000000000000082E-05 ), #102, 'distance_accuracy_value', 'NONE');
#118 = EDGE_LOOP ( 'NONE', ( #234, #203 ) ) ;
#119 = ORIENTED_EDGE ( 'NONE', *, *, #152, .F. ) ;
#120 = DIRECTION ( 'NONE',  ( 1.000000000000000000, 0.000000000000000000, 0.000000000000000000 ) ) ;
#121 = ORIENTED_EDGE ( 'NONE', *, *, #57, .T. ) ;
#122 = DIRECTION ( 'NONE',  ( 0.000000000000000000, 0.000000000000000000, 1.000000000000000000 ) ) ;
#123 = FACE_OUTER_BOUND ( 'NONE', #43, .T. ) ;
#124 = CYLINDRICAL_SURFACE ( 'NONE', #232, 1.000000000000000000 ) ;
#125 = LOCAL_TIME ( 22, 26, 48.00000000000000000, #132 ) ;
#126 = FACE_OUTER_BOUND ( 'NONE', #22, .T. ) ;
#127 = DIRECTION ( 'NONE',  ( 1.000000000000000000, 0.000000000000000000, -0.000000000000000000 ) ) ;
#128 = LINE ( 'NONE', #207, #141 ) ;
#129 = PLANE ( 'NONE',  #47 ) ;
#130 = APPLICATION_PROTOCOL_DEFINITION ( 'international standard', 'config_control_design', 1994, #34 ) ;
#131 = DATE_AND_TIME ( #170, #125 ) ;
#132 = COORDINATED_UNIVERSAL_TIME_OFFSET ( 1, 0, .AHEAD. ) ;
#133 = EDGE_CURVE ( 'NONE', #241, #197, #228, .T. ) ;
#134 = APPROVAL_STATUS ( 'not_yet_approved' ) ;
#135 = CIRCLE ( 'NONE', #253, 1.000000000000000000 ) ;
#136 = CYLINDRICAL_SURFACE ( 'NONE', #252, 2.000000000000000000 ) ;
#137 = EDGE_CURVE ( 'NONE', #197, #241, #26, .T. ) ;
#138 = LINE ( 'NONE', #66, #214 ) ;
#139 = DIRECTION ( 'NONE',  ( -0.000000000000000000, -0.000000000000000000, -1.000000000000000000 ) ) ;
#140 = ORIENTED_EDGE ( 'NONE', *, *, #18, .T. ) ;
#141 = VECTOR ( 'NONE', #227, 1000.000000000000000 ) ;
#142 = LINE ( 'NONE', #23, #115 ) ;
#143 = ADVANCED_FACE ( 'NONE', ( #238 ), #163, .T. ) ;
#144 = ORIENTED_EDGE ( 'NONE', *, *, #189, .F. ) ;
#145 = FACE_OUTER_BOUND ( 'NONE', #179, .T. ) ;
#146 = ORIENTED_EDGE ( 'NONE', *, *, #57, .F. ) ;
#147 = DIRECTION ( 'NONE',  ( -0.000000000000000000, -0.000000000000000000, -1.000000000000000000 ) ) ;
#148 = CARTESIAN_POINT ( 'NONE',  ( -2.000000000000000000, 0.000000000000000000, 0.000000000000000000 ) ) ;
#149 = APPROVAL_PERSON_ORGANIZATION ( #12, #67, #53 ) ;
#150 = APPROVAL_DATE_TIME ( #74, #67 ) ;
#151 =( NAMED_UNIT ( * ) SI_UNIT ( $, .STERADIAN. ) SOLID_ANGLE_UNIT ( ) );
#152 = EDGE_CURVE ( 'NONE', #236, #199, #211, .T. ) ;
#153 = PERSON_AND_ORGANIZATION ( #30, #77 ) ;
#154 = SECURITY_CLASSIFICATION_LEVEL ( 'unclassified' ) ;
#155 = LOCAL_TIME ( 22, 26, 48.00000000000000000, #209 ) ;
#156 = CIRCLE ( 'NONE', #100, 1.000000000000000000 ) ;
#157 = LOCAL_TIME ( 22, 26, 48.00000000000000000, #90 ) ;
#158 =( GEOMETRIC_REPRESENTATION_CONTEXT ( 3 ) GLOBAL_UNCERTAINTY_ASSIGNED_CONTEXT ( ( #117 ) ) GLOBAL_UNIT_ASSIGNED_CONTEXT ( ( #102, #162, #151 ) ) REPRESENTATION_CONTEXT ( 'NONE', 'WORKASPACE' ) );
#159 = CARTESIAN_POINT ( 'NONE',  ( 0.000000000000000000, 0.000000000000000000, 2.000000000000000000 ) ) ;
#160 = EDGE_LOOP ( 'NONE', ( #201, #80 ) ) ;
#161 = ADVANCED_FACE ( 'NONE', ( #145 ), #124, .T. ) ;
#162 =( NAMED_UNIT ( * ) PLANE_ANGLE_UNIT ( ) SI_UNIT ( $, .RADIAN. ) );
#163 = CYLINDRICAL_SURFACE ( 'NONE', #16, 1.000000000000000000 ) ;
#164 = EDGE_LOOP ( 'NONE', ( #103, #144 ) ) ;
#165 = DIRECTION ( 'NONE',  ( 1.000000000000000000, 0.000000000000000000, 0.000000000000000000 ) ) ;
#166 = ORIENTED_EDGE ( 'NONE', *, *, #114, .T. ) ;
#167 = CARTESIAN_POINT ( 'NONE',  ( 0.000000000000000000, 0.000000000000000000, 102.0000000000000142 ) ) ;
#168 = CARTESIAN_POINT ( 'NONE',  ( 0.000000000000000000, 0.000000000000000000, 102.0000000000000142 ) ) ;
#169 = DIRECTION ( 'NONE',  ( 1.000000000000000000, 0.000000000000000000, 0.000000000000000000 ) ) ;
#170 = CALENDAR_DATE ( 2022, 30, 6 ) ;
#171 = APPROVAL_DATE_TIME ( #247, #250 ) ;
#172 = AXIS2_PLACEMENT_3D ( 'NONE', #159, #98, #56 ) ;
#173 = APPLICATION_CONTEXT ( 'configuration controlled 3d designs of mechanical parts and assemblies' ) ;
#174 = CC_DESIGN_SECURITY_CLASSIFICATION ( #9, ( #92 ) ) ;
#175 = ORIENTED_EDGE ( 'NONE', *, *, #97, .F. ) ;
#176 = CIRCLE ( 'NONE', #61, 1.000000000000000000 ) ;
#177 = CARTESIAN_POINT ( 'NONE',  ( -1.000000000000000000, 0.000000000000000000, 102.0000000000000142 ) ) ;
#178 = DIRECTION ( 'NONE',  ( 1.000000000000000000, 0.000000000000000000, -0.000000000000000000 ) ) ;
#179 = EDGE_LOOP ( 'NONE', ( #216, #85, #121, #166 ) ) ;
#180 = CARTESIAN_POINT ( 'NONE',  ( -1.000000000000000000, 0.000000000000000000, 2.000000000000000000 ) ) ;
#181 = DIRECTION ( 'NONE',  ( -0.000000000000000000, -0.000000000000000000, -1.000000000000000000 ) ) ;
#182 = DIRECTION ( 'NONE',  ( 0.000000000000000000, 0.000000000000000000, 1.000000000000000000 ) ) ;
#183 = ORIENTED_EDGE ( 'NONE', *, *, #71, .F. ) ;
#184 = PLANE ( 'NONE',  #219 ) ;
#185 = CC_DESIGN_PERSON_AND_ORGANIZATION_ASSIGNMENT ( #27, #230, ( #13 ) ) ;
#186 = PLANE ( 'NONE',  #188 ) ;
#187 = PERSON_AND_ORGANIZATION ( #30, #77 ) ;
#188 = AXIS2_PLACEMENT_3D ( 'NONE', #208, #19, #222 ) ;
#189 = EDGE_CURVE ( 'NONE', #235, #64, #135, .T. ) ;
#190 = CALENDAR_DATE ( 2022, 30, 6 ) ;
#191 = CALENDAR_DATE ( 2022, 30, 6 ) ;
#192 = MANIFOLD_SOLID_BREP ( 'Pøidat vysunutím3', #99 ) ;
#193 = APPROVAL_ROLE ( '' ) ;
#194 = APPROVAL_STATUS ( 'not_yet_approved' ) ;
#195 = CIRCLE ( 'NONE', #69, 2.000000000000000000 ) ;
#196 = CC_DESIGN_PERSON_AND_ORGANIZATION_ASSIGNMENT ( #248, #29, ( #198 ) ) ;
#197 = VERTEX_POINT ( 'NONE', #148 ) ;
#198 = PRODUCT ( 'ac20', 'ac20', '', ( #93 ) ) ;
#199 = VERTEX_POINT ( 'NONE', #49 ) ;
#200 = LOCAL_TIME ( 22, 26, 48.00000000000000000, #113 ) ;
#201 = ORIENTED_EDGE ( 'NONE', *, *, #152, .T. ) ;
#202 = DIRECTION ( 'NONE',  ( -1.000000000000000000, 0.000000000000000000, 0.000000000000000000 ) ) ;
#203 = ORIENTED_EDGE ( 'NONE', *, *, #133, .F. ) ;
#204 = CARTESIAN_POINT ( 'NONE',  ( 0.000000000000000000, 0.000000000000000000, 102.0000000000000142 ) ) ;
#205 = CYLINDRICAL_SURFACE ( 'NONE', #172, 2.000000000000000000 ) ;
#206 = DIRECTION ( 'NONE',  ( 0.000000000000000000, 0.000000000000000000, 1.000000000000000000 ) ) ;
#207 = CARTESIAN_POINT ( 'NONE',  ( -1.000000000000000000, 0.000000000000000000, 102.0000000000000142 ) ) ;
#208 = CARTESIAN_POINT ( 'NONE',  ( 0.000000000000000000, 0.000000000000000000, 102.0000000000000142 ) ) ;
#209 = COORDINATED_UNIVERSAL_TIME_OFFSET ( 1, 0, .AHEAD. ) ;
#210 = DIRECTION ( 'NONE',  ( 0.000000000000000000, 0.000000000000000000, 1.000000000000000000 ) ) ;
#211 = CIRCLE ( 'NONE', #7, 2.000000000000000000 ) ;
#212 = PERSON_AND_ORGANIZATION_ROLE ( 'creator' ) ;
#213 = CALENDAR_DATE ( 2022, 30, 6 ) ;
#214 = VECTOR ( 'NONE', #48, 1000.000000000000000 ) ;
#215 = ORIENTED_EDGE ( 'NONE', *, *, #133, .T. ) ;
#216 = ORIENTED_EDGE ( 'NONE', *, *, #55, .F. ) ;
#217 = DIRECTION ( 'NONE',  ( 0.000000000000000000, 0.000000000000000000, 1.000000000000000000 ) ) ;
#218 = VERTEX_POINT ( 'NONE', #110 ) ;
#219 = AXIS2_PLACEMENT_3D ( 'NONE', #46, #217, #127 ) ;
#220 = DIRECTION ( 'NONE',  ( 0.000000000000000000, 0.000000000000000000, 1.000000000000000000 ) ) ;
#221 = DIRECTION ( 'NONE',  ( -0.000000000000000000, -0.000000000000000000, -1.000000000000000000 ) ) ;
#222 = DIRECTION ( 'NONE',  ( 1.000000000000000000, 0.000000000000000000, -0.000000000000000000 ) ) ;
#223 = DIRECTION ( 'NONE',  ( 0.000000000000000000, 0.000000000000000000, 1.000000000000000000 ) ) ;
#224 = CC_DESIGN_PERSON_AND_ORGANIZATION_ASSIGNMENT ( #32, #112, ( #9 ) ) ;
#225 = LOCAL_TIME ( 22, 26, 48.00000000000000000, #25 ) ;
#226 = DIRECTION ( 'NONE',  ( 1.000000000000000000, 0.000000000000000000, 0.000000000000000000 ) ) ;
#227 = DIRECTION ( 'NONE',  ( -0.000000000000000000, -0.000000000000000000, -1.000000000000000000 ) ) ;
#228 = CIRCLE ( 'NONE', #245, 2.000000000000000000 ) ;
#229 = CARTESIAN_POINT ( 'NONE',  ( 2.000000000000000000, 2.449293598294706414E-16, 0.000000000000000000 ) ) ;
#230 = PERSON_AND_ORGANIZATION_ROLE ( 'creator' ) ;
#231 = DATE_TIME_ROLE ( 'classification_date' ) ;
#232 = AXIS2_PLACEMENT_3D ( 'NONE', #204, #139, #24 ) ;
#233 = ADVANCED_FACE ( 'NONE', ( #4 ), #184, .F. ) ;
#234 = ORIENTED_EDGE ( 'NONE', *, *, #137, .F. ) ;
#235 = VERTEX_POINT ( 'NONE', #38 ) ;
#236 = VERTEX_POINT ( 'NONE', #109 ) ;
#237 = AXIS2_PLACEMENT_3D ( 'NONE', #88, #86, #58 ) ;
#238 = FACE_OUTER_BOUND ( 'NONE', #41, .T. ) ;
#239 = EDGE_CURVE ( 'NONE', #3, #218, #176, .T. ) ;
#240 = FACE_OUTER_BOUND ( 'NONE', #255, .T. ) ;
#241 = VERTEX_POINT ( 'NONE', #229 ) ;
#242 = CC_DESIGN_APPROVAL ( #84, ( #92 ) ) ;
#243 = DIRECTION ( 'NONE',  ( 1.000000000000000000, 0.000000000000000000, 0.000000000000000000 ) ) ;
#244 = VECTOR ( 'NONE', #221, 1000.000000000000000 ) ;
#245 = AXIS2_PLACEMENT_3D ( 'NONE', #21, #122, #165 ) ;
#246 = PRODUCT_DEFINITION_SHAPE ( 'NONE', 'NONE',  #13 ) ;
#247 = DATE_AND_TIME ( #191, #157 ) ;
#248 = PERSON_AND_ORGANIZATION ( #30, #77 ) ;
#249 = APPROVAL_ROLE ( '' ) ;
#250 = APPROVAL ( #134, 'NEURÈENÝ' ) ;
#251 = CARTESIAN_POINT ( 'NONE',  ( 0.000000000000000000, 0.000000000000000000, 0.000000000000000000 ) ) ;
#252 = AXIS2_PLACEMENT_3D ( 'NONE', #105, #181, #82 ) ;
#253 = AXIS2_PLACEMENT_3D ( 'NONE', #2, #83, #226 ) ;
#254 = ORIENTED_EDGE ( 'NONE', *, *, #189, .T. ) ;
#255 = EDGE_LOOP ( 'NONE', ( #101, #37 ) ) ;
ENDSEC;
END-ISO-10303-21;
