ISO-10303-21;
HEADER;
FILE_DESCRIPTION (( 'STEP AP203' ),
    '1' );
FILE_NAME ('3a76.STEP',
    '2022-07-07T12:19:19',
    ( '' ),
    ( '' ),
    'SwSTEP 2.0',
    'SolidWorks 2019',
    '' );
FILE_SCHEMA (( 'CONFIG_CONTROL_DESIGN' ));
ENDSEC;

DATA;
#1 = FACE_OUTER_BOUND ( 'NONE', #42, .T. ) ;
#2 = CC_DESIGN_PERSON_AND_ORGANIZATION_ASSIGNMENT ( #211, #61, ( #102 ) ) ;
#3 = APPROVAL_DATE_TIME ( #117, #215 ) ;
#4 = ORIENTED_EDGE ( 'NONE', *, *, #231, .F. ) ;
#5 = ORIENTED_EDGE ( 'NONE', *, *, #153, .F. ) ;
#6 = LOCAL_TIME ( 14, 19, 19.00000000000000000, #303 ) ;
#7 = UNCERTAINTY_MEASURE_WITH_UNIT (LENGTH_MEASURE( 1.000000000000000082E-05 ), #295, 'distance_accuracy_value', 'NONE');
#8 = EDGE_LOOP ( 'NONE', ( #27, #217, #119, #143 ) ) ;
#9 = EDGE_CURVE ( 'NONE', #91, #47, #17, .T. ) ;
#10 = APPLICATION_CONTEXT ( 'configuration controlled 3d designs of mechanical parts and assemblies' ) ;
#11 = DIRECTION ( 'NONE',  ( -0.000000000000000000, -0.000000000000000000, -1.000000000000000000 ) ) ;
#12 = CARTESIAN_POINT ( 'NONE',  ( 0.000000000000000000, 0.000000000000000000, 7.200000000000011724 ) ) ;
#13 = CARTESIAN_POINT ( 'NONE',  ( -9.199999999999999289, 1.126675055215564822E-15, 7.000000000000006217 ) ) ;
#14 =( NAMED_UNIT ( * ) SI_UNIT ( $, .STERADIAN. ) SOLID_ANGLE_UNIT ( ) );
#15 = DIRECTION ( 'NONE',  ( 1.000000000000000000, 0.000000000000000000, -0.000000000000000000 ) ) ;
#16 = AXIS2_PLACEMENT_3D ( 'NONE', #12, #35, #101 ) ;
#17 = CIRCLE ( 'NONE', #186, 9.199999999999999289 ) ;
#18 = CC_DESIGN_APPROVAL ( #215, ( #252 ) ) ;
#19 = CARTESIAN_POINT ( 'NONE',  ( 0.000000000000000000, 0.000000000000000000, 257.0000000000000000 ) ) ;
#20 = PERSON_AND_ORGANIZATION_ROLE ( 'design_supplier' ) ;
#21 = CARTESIAN_POINT ( 'NONE',  ( 0.000000000000000000, 0.000000000000000000, 7.000000000000000000 ) ) ;
#22 = CARTESIAN_POINT ( 'NONE',  ( 9.199999999999999289, 0.000000000000000000, 7.200000000000011724 ) ) ;
#23 = DIRECTION ( 'NONE',  ( -0.000000000000000000, -0.000000000000000000, -1.000000000000000000 ) ) ;
#24 = VERTEX_POINT ( 'NONE', #124 ) ;
#25 = CARTESIAN_POINT ( 'NONE',  ( 0.000000000000000000, 0.000000000000000000, 257.0000000000000000 ) ) ;
#26 = PERSON_AND_ORGANIZATION_ROLE ( 'creator' ) ;
#27 = ORIENTED_EDGE ( 'NONE', *, *, #270, .F. ) ;
#28 = VERTEX_POINT ( 'NONE', #100 ) ;
#29 = EDGE_CURVE ( 'NONE', #65, #245, #269, .T. ) ;
#30 = LINE ( 'NONE', #147, #253 ) ;
#31 = ADVANCED_BREP_SHAPE_REPRESENTATION ( '3a76', ( #34, #276 ), #95 ) ;
#32 = ORIENTED_EDGE ( 'NONE', *, *, #270, .T. ) ;
#33 = MECHANICAL_CONTEXT ( 'NONE', #10, 'mechanical' ) ;
#34 = MANIFOLD_SOLID_BREP ( 'Zaoblit1', #204 ) ;
#35 = DIRECTION ( 'NONE',  ( 0.000000000000000000, 0.000000000000000000, 1.000000000000000000 ) ) ;
#36 = ADVANCED_FACE ( 'NONE', ( #75 ), #272, .F. ) ;
#37 = DIRECTION ( 'NONE',  ( 0.000000000000000000, 0.000000000000000000, 1.000000000000000000 ) ) ;
#38 = CARTESIAN_POINT ( 'NONE',  ( -12.00000000000000178, 0.000000000000000000, 7.000000000000000000 ) ) ;
#39 = APPROVAL_ROLE ( '' ) ;
#40 = EDGE_CURVE ( 'NONE', #144, #266, #192, .T. ) ;
#41 = DIRECTION ( 'NONE',  ( -1.000000000000000000, 1.224646799147353207E-16, 0.000000000000000000 ) ) ;
#42 = EDGE_LOOP ( 'NONE', ( #94, #189, #163, #213 ) ) ;
#43 = EDGE_LOOP ( 'NONE', ( #46, #162, #241, #216 ) ) ;
#44 = DIRECTION ( 'NONE',  ( 1.000000000000000000, 0.000000000000000000, 0.000000000000000000 ) ) ;
#45 = APPROVAL_ROLE ( '' ) ;
#46 = ORIENTED_EDGE ( 'NONE', *, *, #29, .F. ) ;
#47 = VERTEX_POINT ( 'NONE', #97 ) ;
#48 = CC_DESIGN_PERSON_AND_ORGANIZATION_ASSIGNMENT ( #265, #258, ( #194 ) ) ;
#49 = TOROIDAL_SURFACE ( 'NONE', #152, 9.199999999999999289, 0.2000000000000000111 ) ;
#50 = DIRECTION ( 'NONE',  ( 1.000000000000000000, 0.000000000000000000, -0.000000000000000000 ) ) ;
#51 = DIRECTION ( 'NONE',  ( 0.000000000000000000, 0.000000000000000000, 1.000000000000000000 ) ) ;
#52 = DIRECTION ( 'NONE',  ( 1.000000000000000000, 0.000000000000000000, 0.000000000000000000 ) ) ;
#53 = CARTESIAN_POINT ( 'NONE',  ( 0.000000000000000000, 0.000000000000000000, 257.0000000000000000 ) ) ;
#54 = VECTOR ( 'NONE', #294, 1000.000000000000000 ) ;
#55 = DIRECTION ( 'NONE',  ( -0.000000000000000000, -0.000000000000000000, -1.000000000000000000 ) ) ;
#56 = CC_DESIGN_PERSON_AND_ORGANIZATION_ASSIGNMENT ( #112, #26, ( #252 ) ) ;
#57 = AXIS2_PLACEMENT_3D ( 'NONE', #228, #235, #181 ) ;
#58 = AXIS2_PLACEMENT_3D ( 'NONE', #195, #243, #170 ) ;
#59 = CARTESIAN_POINT ( 'NONE',  ( -9.199999999999999289, 1.126675055215564822E-15, 7.200000000000011724 ) ) ;
#60 = CARTESIAN_POINT ( 'NONE',  ( 0.000000000000000000, 0.000000000000000000, 7.000000000000000000 ) ) ;
#61 = PERSON_AND_ORGANIZATION_ROLE ( 'creator' ) ;
#62 = DIRECTION ( 'NONE',  ( 1.224646799147353207E-16, 1.000000000000000000, -0.000000000000000000 ) ) ;
#63 = PERSON ( 'NEURÈENÝ', 'NEURÈENÝ', 'NEURÈENÝ', ('NEURÈENÝ'), ('NEURÈENÝ'), ('NEURÈENÝ') ) ;
#64 = SECURITY_CLASSIFICATION_LEVEL ( 'unclassified' ) ;
#65 = VERTEX_POINT ( 'NONE', #73 ) ;
#66 = AXIS2_PLACEMENT_3D ( 'NONE', #127, #74, #174 ) ;
#67 = CARTESIAN_POINT ( 'NONE',  ( 12.00000000000000178, 1.469576158976824144E-15, 0.000000000000000000 ) ) ;
#68 = APPROVAL_DATE_TIME ( #282, #82 ) ;
#69 = ORIENTED_EDGE ( 'NONE', *, *, #226, .F. ) ;
#70 = PRODUCT_DEFINITION_SHAPE ( 'NONE', 'NONE',  #102 ) ;
#71 = EDGE_LOOP ( 'NONE', ( #140, #285 ) ) ;
#72 = CC_DESIGN_APPROVAL ( #82, ( #102 ) ) ;
#73 = CARTESIAN_POINT ( 'NONE',  ( 12.00000000000000178, 1.469576158976824144E-15, 7.000000000000000000 ) ) ;
#74 = DIRECTION ( 'NONE',  ( 0.000000000000000000, 0.000000000000000000, 1.000000000000000000 ) ) ;
#75 = FACE_OUTER_BOUND ( 'NONE', #96, .T. ) ;
#76 = APPROVAL ( #239, 'NEURÈENÝ' ) ;
#77 = COORDINATED_UNIVERSAL_TIME_OFFSET ( 1, 0, .AHEAD. ) ;
#78 = CYLINDRICAL_SURFACE ( 'NONE', #179, 9.000000000000000000 ) ;
#79 = AXIS2_PLACEMENT_3D ( 'NONE', #247, #218, #50 ) ;
#80 = APPROVAL_PERSON_ORGANIZATION ( #159, #215, #45 ) ;
#81 = CARTESIAN_POINT ( 'NONE',  ( 0.000000000000000000, 0.000000000000000000, 7.000000000000000000 ) ) ;
#82 = APPROVAL ( #244, 'NEURÈENÝ' ) ;
#83 = AXIS2_PLACEMENT_3D ( 'NONE', #25, #302, #141 ) ;
#84 = CARTESIAN_POINT ( 'NONE',  ( 0.000000000000000000, 0.000000000000000000, 0.000000000000000000 ) ) ;
#85 = LOCAL_TIME ( 14, 19, 19.00000000000000000, #256 ) ;
#86 = DIRECTION ( 'NONE',  ( 1.000000000000000000, 0.000000000000000000, 0.000000000000000000 ) ) ;
#87 = PRODUCT_RELATED_PRODUCT_CATEGORY ( 'detail', '', ( #267 ) ) ;
#88 = COORDINATED_UNIVERSAL_TIME_OFFSET ( 1, 0, .AHEAD. ) ;
#89 = CYLINDRICAL_SURFACE ( 'NONE', #201, 12.00000000000000178 ) ;
#90 = CALENDAR_DATE ( 2022, 7, 7 ) ;
#91 = VERTEX_POINT ( 'NONE', #13 ) ;
#92 = DIRECTION ( 'NONE',  ( 0.000000000000000000, -1.000000000000000000, 0.000000000000000000 ) ) ;
#93 = PERSON_AND_ORGANIZATION ( #63, #275 ) ;
#94 = ORIENTED_EDGE ( 'NONE', *, *, #246, .F. ) ;
#95 =( GEOMETRIC_REPRESENTATION_CONTEXT ( 3 ) GLOBAL_UNCERTAINTY_ASSIGNED_CONTEXT ( ( #7 ) ) GLOBAL_UNIT_ASSIGNED_CONTEXT ( ( #295, #125, #14 ) ) REPRESENTATION_CONTEXT ( 'NONE', 'WORKASPACE' ) );
#96 = EDGE_LOOP ( 'NONE', ( #240, #183 ) ) ;
#97 = CARTESIAN_POINT ( 'NONE',  ( 9.199999999999999289, 0.000000000000000000, 7.000000000000006217 ) ) ;
#98 = DIRECTION ( 'NONE',  ( 0.000000000000000000, 0.000000000000000000, 1.000000000000000000 ) ) ;
#99 = CC_DESIGN_DATE_AND_TIME_ASSIGNMENT ( #142, #280, ( #102 ) ) ;
#100 = CARTESIAN_POINT ( 'NONE',  ( -12.00000000000000178, 0.000000000000000000, 0.000000000000000000 ) ) ;
#101 = DIRECTION ( 'NONE',  ( 1.000000000000000000, 0.000000000000000000, 0.000000000000000000 ) ) ;
#102 = PRODUCT_DEFINITION ( 'NEZNÁMÝ', '', #252, #222 ) ;
#103 = EDGE_CURVE ( 'NONE', #24, #266, #242, .T. ) ;
#104 = LOCAL_TIME ( 14, 19, 19.00000000000000000, #88 ) ;
#105 = DIRECTION ( 'NONE',  ( 0.000000000000000000, 0.000000000000000000, 1.000000000000000000 ) ) ;
#106 = SHAPE_DEFINITION_REPRESENTATION ( #70, #31 ) ;
#107 = EDGE_CURVE ( 'NONE', #190, #28, #30, .T. ) ;
#108 = FACE_OUTER_BOUND ( 'NONE', #43, .T. ) ;
#109 = AXIS2_PLACEMENT_3D ( 'NONE', #264, #286, #305 ) ;
#110 = CC_DESIGN_SECURITY_CLASSIFICATION ( #194, ( #252 ) ) ;
#111 = DIRECTION ( 'NONE',  ( 0.000000000000000000, 0.000000000000000000, 1.000000000000000000 ) ) ;
#112 = PERSON_AND_ORGANIZATION ( #63, #275 ) ;
#113 = DIRECTION ( 'NONE',  ( 0.000000000000000000, 0.000000000000000000, 1.000000000000000000 ) ) ;
#114 = ORIENTED_EDGE ( 'NONE', *, *, #208, .T. ) ;
#115 = ORIENTED_EDGE ( 'NONE', *, *, #103, .T. ) ;
#116 = DIRECTION ( 'NONE',  ( 1.000000000000000000, 0.000000000000000000, 0.000000000000000000 ) ) ;
#117 = DATE_AND_TIME ( #229, #126 ) ;
#118 = AXIS2_PLACEMENT_3D ( 'NONE', #21, #254, #44 ) ;
#119 = ORIENTED_EDGE ( 'NONE', *, *, #168, .T. ) ;
#120 = ORIENTED_EDGE ( 'NONE', *, *, #132, .T. ) ;
#121 = CARTESIAN_POINT ( 'NONE',  ( 0.000000000000000000, 0.000000000000000000, 7.000000000000000000 ) ) ;
#122 = CARTESIAN_POINT ( 'NONE',  ( 9.000000000000000000, 1.102182119232617714E-15, 7.200000000000011724 ) ) ;
#123 = EDGE_CURVE ( 'NONE', #47, #91, #251, .T. ) ;
#124 = CARTESIAN_POINT ( 'NONE',  ( -9.000000000000000000, 0.000000000000000000, 7.200000000000011724 ) ) ;
#125 =( NAMED_UNIT ( * ) PLANE_ANGLE_UNIT ( ) SI_UNIT ( $, .RADIAN. ) );
#126 = LOCAL_TIME ( 14, 19, 19.00000000000000000, #209 ) ;
#127 = CARTESIAN_POINT ( 'NONE',  ( 0.000000000000000000, 0.000000000000000000, 7.000000000000000000 ) ) ;
#128 = DIRECTION ( 'NONE',  ( 1.000000000000000000, 0.000000000000000000, 0.000000000000000000 ) ) ;
#129 = APPLICATION_PROTOCOL_DEFINITION ( 'international standard', 'config_control_design', 1994, #274 ) ;
#130 = APPROVAL_PERSON_ORGANIZATION ( #93, #76, #39 ) ;
#131 = AXIS2_PLACEMENT_3D ( 'NONE', #171, #250, #224 ) ;
#132 = EDGE_CURVE ( 'NONE', #263, #24, #202, .T. ) ;
#133 = APPROVAL_STATUS ( 'not_yet_approved' ) ;
#134 = DATE_AND_TIME ( #90, #6 ) ;
#135 = DIRECTION ( 'NONE',  ( -0.000000000000000000, -0.000000000000000000, -1.000000000000000000 ) ) ;
#136 = CALENDAR_DATE ( 2022, 7, 7 ) ;
#137 = AXIS2_PLACEMENT_3D ( 'NONE', #81, #98, #15 ) ;
#138 = CARTESIAN_POINT ( 'NONE',  ( 0.000000000000000000, 0.000000000000000000, 7.200000000000011724 ) ) ;
#139 = EDGE_LOOP ( 'NONE', ( #4, #5, #114, #289 ) ) ;
#140 = ORIENTED_EDGE ( 'NONE', *, *, #226, .T. ) ;
#141 = DIRECTION ( 'NONE',  ( -1.000000000000000000, 0.000000000000000000, 0.000000000000000000 ) ) ;
#142 = DATE_AND_TIME ( #206, #104 ) ;
#143 = ORIENTED_EDGE ( 'NONE', *, *, #107, .F. ) ;
#144 = VERTEX_POINT ( 'NONE', #278 ) ;
#145 = VECTOR ( 'NONE', #11, 1000.000000000000000 ) ;
#146 = CIRCLE ( 'NONE', #66, 12.00000000000000178 ) ;
#147 = CARTESIAN_POINT ( 'NONE',  ( -12.00000000000000178, 0.000000000000000000, 7.000000000000000000 ) ) ;
#148 = CARTESIAN_POINT ( 'NONE',  ( -9.000000000000000000, 0.000000000000000000, 257.0000000000000000 ) ) ;
#149 = CARTESIAN_POINT ( 'NONE',  ( 12.00000000000000178, 1.469576158976824144E-15, 7.000000000000000000 ) ) ;
#150 = PERSON_AND_ORGANIZATION ( #63, #275 ) ;
#151 = APPLICATION_PROTOCOL_DEFINITION ( 'international standard', 'config_control_design', 1994, #10 ) ;
#152 = AXIS2_PLACEMENT_3D ( 'NONE', #138, #111, #238 ) ;
#153 = EDGE_CURVE ( 'NONE', #266, #24, #155, .T. ) ;
#154 = ADVANCED_FACE ( 'NONE', ( #1 ), #230, .T. ) ;
#155 = CIRCLE ( 'NONE', #109, 9.000000000000000000 ) ;
#156 = CIRCLE ( 'NONE', #261, 0.2000000000000005107 ) ;
#157 = CARTESIAN_POINT ( 'NONE',  ( 0.000000000000000000, 0.000000000000000000, 257.0000000000000000 ) ) ;
#158 = FACE_OUTER_BOUND ( 'NONE', #8, .T. ) ;
#159 = PERSON_AND_ORGANIZATION ( #63, #275 ) ;
#160 = DIRECTION ( 'NONE',  ( -0.000000000000000000, -0.000000000000000000, -1.000000000000000000 ) ) ;
#161 = CIRCLE ( 'NONE', #287, 9.000000000000000000 ) ;
#162 = ORIENTED_EDGE ( 'NONE', *, *, #292, .F. ) ;
#163 = ORIENTED_EDGE ( 'NONE', *, *, #153, .T. ) ;
#164 = DIRECTION ( 'NONE',  ( 0.000000000000000000, 0.000000000000000000, 1.000000000000000000 ) ) ;
#165 = ORIENTED_EDGE ( 'NONE', *, *, #208, .F. ) ;
#166 = ORIENTED_EDGE ( 'NONE', *, *, #40, .F. ) ;
#167 = ORIENTED_EDGE ( 'NONE', *, *, #103, .F. ) ;
#168 = EDGE_CURVE ( 'NONE', #245, #28, #198, .T. ) ;
#169 = CIRCLE ( 'NONE', #131, 12.00000000000000178 ) ;
#170 = DIRECTION ( 'NONE',  ( 1.000000000000000000, 0.000000000000000000, 0.000000000000000000 ) ) ;
#171 = CARTESIAN_POINT ( 'NONE',  ( 0.000000000000000000, 0.000000000000000000, 7.000000000000000000 ) ) ;
#172 = EDGE_LOOP ( 'NONE', ( #291, #32 ) ) ;
#173 = CALENDAR_DATE ( 2022, 7, 7 ) ;
#174 = DIRECTION ( 'NONE',  ( 1.000000000000000000, 0.000000000000000000, 0.000000000000000000 ) ) ;
#175 = ADVANCED_FACE ( 'NONE', ( #281 ), #49, .F. ) ;
#176 = AXIS2_PLACEMENT_3D ( 'NONE', #60, #214, #306 ) ;
#177 = DIRECTION ( 'NONE',  ( 1.000000000000000000, 0.000000000000000000, 0.000000000000000000 ) ) ;
#178 = AXIS2_PLACEMENT_3D ( 'NONE', #84, #113, #116 ) ;
#179 = AXIS2_PLACEMENT_3D ( 'NONE', #53, #55, #197 ) ;
#180 = CARTESIAN_POINT ( 'NONE',  ( -9.000000000000000000, 0.000000000000000000, 257.0000000000000000 ) ) ;
#181 = DIRECTION ( 'NONE',  ( 1.000000000000000000, 0.000000000000000000, -0.000000000000000000 ) ) ;
#182 = ADVANCED_FACE ( 'NONE', ( #108 ), #207, .T. ) ;
#183 = ORIENTED_EDGE ( 'NONE', *, *, #168, .F. ) ;
#184 = DIRECTION ( 'NONE',  ( 0.000000000000000000, 0.000000000000000000, -1.000000000000000000 ) ) ;
#185 = PERSON_AND_ORGANIZATION ( #63, #275 ) ;
#186 = AXIS2_PLACEMENT_3D ( 'NONE', #121, #296, #52 ) ;
#187 = AXIS2_PLACEMENT_3D ( 'NONE', #22, #92, #184 ) ;
#188 = ORIENTED_EDGE ( 'NONE', *, *, #123, .F. ) ;
#189 = ORIENTED_EDGE ( 'NONE', *, *, #40, .T. ) ;
#190 = VERTEX_POINT ( 'NONE', #38 ) ;
#191 = ADVANCED_FACE ( 'NONE', ( #259 ), #203, .T. ) ;
#192 = LINE ( 'NONE', #219, #145 ) ;
#193 = FACE_OUTER_BOUND ( 'NONE', #237, .T. ) ;
#194 = SECURITY_CLASSIFICATION ( '', '', #64 ) ;
#195 = CARTESIAN_POINT ( 'NONE',  ( 0.000000000000000000, 0.000000000000000000, 7.200000000000011724 ) ) ;
#196 = PERSON_AND_ORGANIZATION_ROLE ( 'design_owner' ) ;
#197 = DIRECTION ( 'NONE',  ( -1.000000000000000000, 0.000000000000000000, 0.000000000000000000 ) ) ;
#198 = CIRCLE ( 'NONE', #178, 12.00000000000000178 ) ;
#199 = AXIS2_PLACEMENT_3D ( 'NONE', #283, #164, #177 ) ;
#200 = CC_DESIGN_DATE_AND_TIME_ASSIGNMENT ( #134, #284, ( #194 ) ) ;
#201 = AXIS2_PLACEMENT_3D ( 'NONE', #257, #135, #232 ) ;
#202 = LINE ( 'NONE', #180, #298 ) ;
#203 = PLANE ( 'NONE',  #57 ) ;
#204 = CLOSED_SHELL ( 'NONE', ( #277, #154, #249, #182, #300, #36, #279, #191, #175 ) ) ;
#205 = LOCAL_TIME ( 14, 19, 19.00000000000000000, #77 ) ;
#206 = CALENDAR_DATE ( 2022, 7, 7 ) ;
#207 = CYLINDRICAL_SURFACE ( 'NONE', #176, 12.00000000000000178 ) ;
#208 = EDGE_CURVE ( 'NONE', #266, #47, #260, .T. ) ;
#209 = COORDINATED_UNIVERSAL_TIME_OFFSET ( 1, 0, .AHEAD. ) ;
#210 = DIRECTION ( 'NONE',  ( 1.000000000000000000, 0.000000000000000000, 0.000000000000000000 ) ) ;
#211 = PERSON_AND_ORGANIZATION ( #63, #275 ) ;
#212 = EDGE_LOOP ( 'NONE', ( #167, #236, #188, #165 ) ) ;
#213 = ORIENTED_EDGE ( 'NONE', *, *, #132, .F. ) ;
#214 = DIRECTION ( 'NONE',  ( -0.000000000000000000, -0.000000000000000000, -1.000000000000000000 ) ) ;
#215 = APPROVAL ( #133, 'NEURÈENÝ' ) ;
#216 = ORIENTED_EDGE ( 'NONE', *, *, #221, .T. ) ;
#217 = ORIENTED_EDGE ( 'NONE', *, *, #29, .T. ) ;
#218 = DIRECTION ( 'NONE',  ( 0.000000000000000000, 0.000000000000000000, 1.000000000000000000 ) ) ;
#219 = CARTESIAN_POINT ( 'NONE',  ( 9.000000000000000000, 1.102182119232617714E-15, 257.0000000000000000 ) ) ;
#220 = PERSON_AND_ORGANIZATION ( #63, #275 ) ;
#221 = EDGE_CURVE ( 'NONE', #28, #245, #233, .T. ) ;
#222 = DESIGN_CONTEXT ( 'detailed design', #274, 'design' ) ;
#223 = FACE_OUTER_BOUND ( 'NONE', #172, .T. ) ;
#224 = DIRECTION ( 'NONE',  ( 1.000000000000000000, 0.000000000000000000, 0.000000000000000000 ) ) ;
#225 = PLANE ( 'NONE',  #137 ) ;
#226 = EDGE_CURVE ( 'NONE', #263, #144, #268, .T. ) ;
#227 = CC_DESIGN_APPROVAL ( #76, ( #194 ) ) ;
#228 = CARTESIAN_POINT ( 'NONE',  ( 0.000000000000000000, 0.000000000000000000, 257.0000000000000000 ) ) ;
#229 = CALENDAR_DATE ( 2022, 7, 7 ) ;
#230 = CYLINDRICAL_SURFACE ( 'NONE', #83, 9.000000000000000000 ) ;
#231 = EDGE_CURVE ( 'NONE', #24, #91, #156, .T. ) ;
#232 = DIRECTION ( 'NONE',  ( -1.000000000000000000, 0.000000000000000000, 0.000000000000000000 ) ) ;
#233 = CIRCLE ( 'NONE', #199, 12.00000000000000178 ) ;
#234 = DATE_AND_TIME ( #136, #85 ) ;
#235 = DIRECTION ( 'NONE',  ( 0.000000000000000000, 0.000000000000000000, 1.000000000000000000 ) ) ;
#236 = ORIENTED_EDGE ( 'NONE', *, *, #231, .T. ) ;
#237 = EDGE_LOOP ( 'NONE', ( #166, #69, #120, #115 ) ) ;
#238 = DIRECTION ( 'NONE',  ( 1.000000000000000000, 0.000000000000000000, 0.000000000000000000 ) ) ;
#239 = APPROVAL_STATUS ( 'not_yet_approved' ) ;
#240 = ORIENTED_EDGE ( 'NONE', *, *, #221, .F. ) ;
#241 = ORIENTED_EDGE ( 'NONE', *, *, #107, .T. ) ;
#242 = CIRCLE ( 'NONE', #58, 9.000000000000000000 ) ;
#243 = DIRECTION ( 'NONE',  ( 0.000000000000000000, 0.000000000000000000, 1.000000000000000000 ) ) ;
#244 = APPROVAL_STATUS ( 'not_yet_approved' ) ;
#245 = VERTEX_POINT ( 'NONE', #67 ) ;
#246 = EDGE_CURVE ( 'NONE', #144, #263, #161, .T. ) ;
#247 = CARTESIAN_POINT ( 'NONE',  ( 0.000000000000000000, 0.000000000000000000, 0.000000000000000000 ) ) ;
#248 = APPROVAL_PERSON_ORGANIZATION ( #220, #82, #297 ) ;
#249 = ADVANCED_FACE ( 'NONE', ( #158 ), #89, .T. ) ;
#250 = DIRECTION ( 'NONE',  ( 0.000000000000000000, 0.000000000000000000, 1.000000000000000000 ) ) ;
#251 = CIRCLE ( 'NONE', #118, 9.199999999999999289 ) ;
#252 = PRODUCT_DEFINITION_FORMATION_WITH_SPECIFIED_SOURCE ( 'LIBOVOLNÝ', '', #267, .NOT_KNOWN. ) ;
#253 = VECTOR ( 'NONE', #23, 1000.000000000000000 ) ;
#254 = DIRECTION ( 'NONE',  ( -0.000000000000000000, -0.000000000000000000, -1.000000000000000000 ) ) ;
#255 = CC_DESIGN_PERSON_AND_ORGANIZATION_ASSIGNMENT ( #185, #20, ( #252 ) ) ;
#256 = COORDINATED_UNIVERSAL_TIME_OFFSET ( 1, 0, .AHEAD. ) ;
#257 = CARTESIAN_POINT ( 'NONE',  ( 0.000000000000000000, 0.000000000000000000, 7.000000000000000000 ) ) ;
#258 = PERSON_AND_ORGANIZATION_ROLE ( 'classification_officer' ) ;
#259 = FACE_OUTER_BOUND ( 'NONE', #71, .T. ) ;
#260 = CIRCLE ( 'NONE', #187, 0.1999999999999996503 ) ;
#261 = AXIS2_PLACEMENT_3D ( 'NONE', #59, #62, #41 ) ;
#262 = EDGE_LOOP ( 'NONE', ( #307, #290 ) ) ;
#263 = VERTEX_POINT ( 'NONE', #148 ) ;
#264 = CARTESIAN_POINT ( 'NONE',  ( 0.000000000000000000, 0.000000000000000000, 7.200000000000011724 ) ) ;
#265 = PERSON_AND_ORGANIZATION ( #63, #275 ) ;
#266 = VERTEX_POINT ( 'NONE', #122 ) ;
#267 = PRODUCT ( '3a76', '3a76', '', ( #33 ) ) ;
#268 = CIRCLE ( 'NONE', #304, 9.000000000000000000 ) ;
#269 = LINE ( 'NONE', #149, #54 ) ;
#270 = EDGE_CURVE ( 'NONE', #65, #190, #146, .T. ) ;
#271 = CARTESIAN_POINT ( 'NONE',  ( 0.000000000000000000, 0.000000000000000000, 0.000000000000000000 ) ) ;
#272 = PLANE ( 'NONE',  #79 ) ;
#273 = FACE_OUTER_BOUND ( 'NONE', #212, .T. ) ;
#274 = APPLICATION_CONTEXT ( 'configuration controlled 3d designs of mechanical parts and assemblies' ) ;
#275 = ORGANIZATION ( 'NEURÈENÝ', 'NEURÈENÝ', '' ) ;
#276 = AXIS2_PLACEMENT_3D ( 'NONE', #271, #51, #128 ) ;
#277 = ADVANCED_FACE ( 'NONE', ( #273 ), #293, .F. ) ;
#278 = CARTESIAN_POINT ( 'NONE',  ( 9.000000000000000000, 1.102182119232617714E-15, 257.0000000000000000 ) ) ;
#279 = ADVANCED_FACE ( 'NONE', ( #193 ), #78, .T. ) ;
#280 = DATE_TIME_ROLE ( 'creation_date' ) ;
#281 = FACE_OUTER_BOUND ( 'NONE', #139, .T. ) ;
#282 = DATE_AND_TIME ( #173, #205 ) ;
#283 = CARTESIAN_POINT ( 'NONE',  ( 0.000000000000000000, 0.000000000000000000, 0.000000000000000000 ) ) ;
#284 = DATE_TIME_ROLE ( 'classification_date' ) ;
#285 = ORIENTED_EDGE ( 'NONE', *, *, #246, .T. ) ;
#286 = DIRECTION ( 'NONE',  ( 0.000000000000000000, 0.000000000000000000, 1.000000000000000000 ) ) ;
#287 = AXIS2_PLACEMENT_3D ( 'NONE', #157, #37, #86 ) ;
#288 = APPROVAL_DATE_TIME ( #234, #76 ) ;
#289 = ORIENTED_EDGE ( 'NONE', *, *, #9, .F. ) ;
#290 = ORIENTED_EDGE ( 'NONE', *, *, #9, .T. ) ;
#291 = ORIENTED_EDGE ( 'NONE', *, *, #292, .T. ) ;
#292 = EDGE_CURVE ( 'NONE', #190, #65, #169, .T. ) ;
#293 = TOROIDAL_SURFACE ( 'NONE', #16, 9.199999999999999289, 0.2000000000000000111 ) ;
#294 = DIRECTION ( 'NONE',  ( -0.000000000000000000, -0.000000000000000000, -1.000000000000000000 ) ) ;
#295 =( LENGTH_UNIT ( ) NAMED_UNIT ( * ) SI_UNIT ( .MILLI., .METRE. ) );
#296 = DIRECTION ( 'NONE',  ( -0.000000000000000000, -0.000000000000000000, -1.000000000000000000 ) ) ;
#297 = APPROVAL_ROLE ( '' ) ;
#298 = VECTOR ( 'NONE', #160, 1000.000000000000000 ) ;
#299 = FACE_BOUND ( 'NONE', #262, .T. ) ;
#300 = ADVANCED_FACE ( 'NONE', ( #299, #223 ), #225, .T. ) ;
#301 = CC_DESIGN_PERSON_AND_ORGANIZATION_ASSIGNMENT ( #150, #196, ( #267 ) ) ;
#302 = DIRECTION ( 'NONE',  ( -0.000000000000000000, -0.000000000000000000, -1.000000000000000000 ) ) ;
#303 = COORDINATED_UNIVERSAL_TIME_OFFSET ( 1, 0, .AHEAD. ) ;
#304 = AXIS2_PLACEMENT_3D ( 'NONE', #19, #105, #210 ) ;
#305 = DIRECTION ( 'NONE',  ( 1.000000000000000000, 0.000000000000000000, 0.000000000000000000 ) ) ;
#306 = DIRECTION ( 'NONE',  ( -1.000000000000000000, 0.000000000000000000, 0.000000000000000000 ) ) ;
#307 = ORIENTED_EDGE ( 'NONE', *, *, #123, .T. ) ;
ENDSEC;
END-ISO-10303-21;
