ISO-10303-21;
HEADER;
FILE_DESCRIPTION (( 'STEP AP203' ),
    '1' );
FILE_NAME ('d98d.STEP',
    '2022-07-07T12:55:27',
    ( '' ),
    ( '' ),
    'SwSTEP 2.0',
    'SolidWorks 2019',
    '' );
FILE_SCHEMA (( 'CONFIG_CONTROL_DESIGN' ));
ENDSEC;

DATA;
#1 = DATE_AND_TIME ( #307, #46 ) ;
#2 = PERSON_AND_ORGANIZATION ( #42, #176 ) ;
#3 = APPROVAL_DATE_TIME ( #118, #66 ) ;
#4 = AXIS2_PLACEMENT_3D ( 'NONE', #173, #13, #179 ) ;
#5 = APPLICATION_PROTOCOL_DEFINITION ( 'international standard', 'config_control_design', 1994, #148 ) ;
#6 = ORIENTED_EDGE ( 'NONE', *, *, #192, .F. ) ;
#7 = DIRECTION ( 'NONE',  ( 1.000000000000000000, 0.000000000000000000, 0.000000000000000000 ) ) ;
#8 = ORIENTED_EDGE ( 'NONE', *, *, #160, .T. ) ;
#9 = DIRECTION ( 'NONE',  ( -0.000000000000000000, -0.000000000000000000, -1.000000000000000000 ) ) ;
#10 = VERTEX_POINT ( 'NONE', #291 ) ;
#11 = PLANE ( 'NONE',  #53 ) ;
#12 = EDGE_LOOP ( 'NONE', ( #106, #177, #201, #221 ) ) ;
#13 = DIRECTION ( 'NONE',  ( 0.000000000000000000, 0.000000000000000000, 1.000000000000000000 ) ) ;
#14 = VERTEX_POINT ( 'NONE', #271 ) ;
#15 = EDGE_LOOP ( 'NONE', ( #123, #156 ) ) ;
#16 = EDGE_CURVE ( 'NONE', #14, #266, #172, .T. ) ;
#17 = CARTESIAN_POINT ( 'NONE',  ( 0.000000000000000000, 0.000000000000000000, 128.0000000000000000 ) ) ;
#18 = LOCAL_TIME ( 14, 55, 27.00000000000000000, #144 ) ;
#19 = LOCAL_TIME ( 14, 55, 27.00000000000000000, #281 ) ;
#20 = DIRECTION ( 'NONE',  ( 0.000000000000000000, 0.000000000000000000, 1.000000000000000000 ) ) ;
#21 = FACE_OUTER_BOUND ( 'NONE', #252, .T. ) ;
#22 = ADVANCED_FACE ( 'NONE', ( #202 ), #248, .T. ) ;
#23 = CIRCLE ( 'NONE', #79, 1.500000000000000222 ) ;
#24 = CARTESIAN_POINT ( 'NONE',  ( 0.000000000000000000, 0.000000000000000000, 3.000000000000000000 ) ) ;
#25 = APPROVAL_STATUS ( 'not_yet_approved' ) ;
#26 = DATE_TIME_ROLE ( 'creation_date' ) ;
#27 = CC_DESIGN_APPROVAL ( #66, ( #85 ) ) ;
#28 = SECURITY_CLASSIFICATION_LEVEL ( 'unclassified' ) ;
#29 = PRODUCT_DEFINITION_SHAPE ( 'NONE', 'NONE',  #85 ) ;
#30 = COORDINATED_UNIVERSAL_TIME_OFFSET ( 1, 0, .AHEAD. ) ;
#31 = EDGE_CURVE ( 'NONE', #10, #247, #108, .T. ) ;
#32 = ORIENTED_EDGE ( 'NONE', *, *, #192, .T. ) ;
#33 = DIRECTION ( 'NONE',  ( 1.224646799147353207E-16, 1.000000000000000000, -0.000000000000000000 ) ) ;
#34 = CARTESIAN_POINT ( 'NONE',  ( 0.000000000000000000, 0.000000000000000000, 3.000000000000000000 ) ) ;
#35 = AXIS2_PLACEMENT_3D ( 'NONE', #295, #180, #7 ) ;
#36 = ORIENTED_EDGE ( 'NONE', *, *, #57, .T. ) ;
#37 = CC_DESIGN_PERSON_AND_ORGANIZATION_ASSIGNMENT ( #163, #263, ( #245 ) ) ;
#38 = DIRECTION ( 'NONE',  ( -1.000000000000000000, 0.000000000000000000, 0.000000000000000000 ) ) ;
#39 = ORIENTED_EDGE ( 'NONE', *, *, #104, .F. ) ;
#40 = AXIS2_PLACEMENT_3D ( 'NONE', #114, #159, #276 ) ;
#41 = CARTESIAN_POINT ( 'NONE',  ( 3.000000000000000444, 3.673940397442060361E-16, 3.000000000000000000 ) ) ;
#42 = PERSON ( 'NEURÈENÝ', 'NEURÈENÝ', 'NEURÈENÝ', ('NEURÈENÝ'), ('NEURÈENÝ'), ('NEURÈENÝ') ) ;
#43 = DIRECTION ( 'NONE',  ( 1.000000000000000000, 0.000000000000000000, 0.000000000000000000 ) ) ;
#44 = DIRECTION ( 'NONE',  ( 0.000000000000000000, 0.000000000000000000, 1.000000000000000000 ) ) ;
#45 = DIRECTION ( 'NONE',  ( -0.000000000000000000, -0.000000000000000000, -1.000000000000000000 ) ) ;
#46 = LOCAL_TIME ( 14, 55, 27.00000000000000000, #30 ) ;
#47 = CC_DESIGN_PERSON_AND_ORGANIZATION_ASSIGNMENT ( #168, #147, ( #138 ) ) ;
#48 = DIRECTION ( 'NONE',  ( 0.000000000000000000, 0.000000000000000000, 1.000000000000000000 ) ) ;
#49 = CARTESIAN_POINT ( 'NONE',  ( -3.000000000000000444, 0.000000000000000000, 0.000000000000000000 ) ) ;
#50 = CARTESIAN_POINT ( 'NONE',  ( 0.000000000000000000, 0.000000000000000000, 0.000000000000000000 ) ) ;
#51 = DIRECTION ( 'NONE',  ( 0.000000000000000000, 0.000000000000000000, 1.000000000000000000 ) ) ;
#52 = ADVANCED_FACE ( 'NONE', ( #129 ), #11, .T. ) ;
#53 = AXIS2_PLACEMENT_3D ( 'NONE', #196, #197, #105 ) ;
#54 = APPROVAL_STATUS ( 'not_yet_approved' ) ;
#55 = APPROVAL_ROLE ( '' ) ;
#56 = CC_DESIGN_DATE_AND_TIME_ASSIGNMENT ( #239, #26, ( #85 ) ) ;
#57 = EDGE_CURVE ( 'NONE', #247, #10, #210, .T. ) ;
#58 = PERSON_AND_ORGANIZATION_ROLE ( 'classification_officer' ) ;
#59 = CLOSED_SHELL ( 'NONE', ( #88, #195, #22, #139, #231, #191, #171, #52, #149 ) ) ;
#60 = ORIENTED_EDGE ( 'NONE', *, *, #160, .F. ) ;
#61 = FACE_OUTER_BOUND ( 'NONE', #84, .T. ) ;
#62 = CIRCLE ( 'NONE', #260, 0.2000000000000000944 ) ;
#63 = APPROVAL_PERSON_ORGANIZATION ( #115, #298, #96 ) ;
#64 = APPROVAL_PERSON_ORGANIZATION ( #2, #66, #55 ) ;
#65 = DIRECTION ( 'NONE',  ( 1.000000000000000000, 0.000000000000000000, 0.000000000000000000 ) ) ;
#66 = APPROVAL ( #54, 'NEURÈENÝ' ) ;
#67 = CARTESIAN_POINT ( 'NONE',  ( 0.000000000000000000, 0.000000000000000000, 3.000000000000000000 ) ) ;
#68 = ORIENTED_EDGE ( 'NONE', *, *, #128, .T. ) ;
#69 =( GEOMETRIC_REPRESENTATION_CONTEXT ( 3 ) GLOBAL_UNCERTAINTY_ASSIGNED_CONTEXT ( ( #229 ) ) GLOBAL_UNIT_ASSIGNED_CONTEXT ( ( #111, #209, #146 ) ) REPRESENTATION_CONTEXT ( 'NONE', 'WORKASPACE' ) );
#70 = DIRECTION ( 'NONE',  ( -0.000000000000000000, -0.000000000000000000, -1.000000000000000000 ) ) ;
#71 = DIRECTION ( 'NONE',  ( 1.000000000000000000, 0.000000000000000000, 0.000000000000000000 ) ) ;
#72 = CIRCLE ( 'NONE', #4, 1.500000000000000222 ) ;
#73 = LINE ( 'NONE', #158, #78 ) ;
#74 = DIRECTION ( 'NONE',  ( 0.000000000000000000, 0.000000000000000000, 1.000000000000000000 ) ) ;
#75 = APPLICATION_PROTOCOL_DEFINITION ( 'international standard', 'config_control_design', 1994, #164 ) ;
#76 = AXIS2_PLACEMENT_3D ( 'NONE', #274, #131, #65 ) ;
#77 = PERSON_AND_ORGANIZATION_ROLE ( 'creator' ) ;
#78 = VECTOR ( 'NONE', #93, 1000.000000000000000 ) ;
#79 = AXIS2_PLACEMENT_3D ( 'NONE', #233, #48, #43 ) ;
#80 = VERTEX_POINT ( 'NONE', #293 ) ;
#81 = ORIENTED_EDGE ( 'NONE', *, *, #109, .F. ) ;
#82 = CARTESIAN_POINT ( 'NONE',  ( 0.000000000000000000, 0.000000000000000000, 3.000000000000000000 ) ) ;
#83 = DIRECTION ( 'NONE',  ( -0.000000000000000000, -0.000000000000000000, -1.000000000000000000 ) ) ;
#84 = EDGE_LOOP ( 'NONE', ( #228, #133, #225, #36 ) ) ;
#85 = PRODUCT_DEFINITION ( 'NEZNÁMÝ', '', #138, #297 ) ;
#86 = FACE_OUTER_BOUND ( 'NONE', #130, .T. ) ;
#87 = CIRCLE ( 'NONE', #267, 0.2000000000000000944 ) ;
#88 = ADVANCED_FACE ( 'NONE', ( #86 ), #289, .F. ) ;
#89 = AXIS2_PLACEMENT_3D ( 'NONE', #34, #9, #103 ) ;
#90 = CIRCLE ( 'NONE', #220, 1.700000000000000400 ) ;
#91 = CARTESIAN_POINT ( 'NONE',  ( 0.000000000000000000, 0.000000000000000000, 3.000000000000000000 ) ) ;
#92 = DIRECTION ( 'NONE',  ( -0.000000000000000000, -0.000000000000000000, -1.000000000000000000 ) ) ;
#93 = DIRECTION ( 'NONE',  ( -0.000000000000000000, -0.000000000000000000, -1.000000000000000000 ) ) ;
#94 = LINE ( 'NONE', #205, #250 ) ;
#95 = CARTESIAN_POINT ( 'NONE',  ( 0.000000000000000000, 0.000000000000000000, 128.0000000000000000 ) ) ;
#96 = APPROVAL_ROLE ( '' ) ;
#97 = PERSON_AND_ORGANIZATION ( #42, #176 ) ;
#98 = PERSON_AND_ORGANIZATION ( #42, #176 ) ;
#99 = EDGE_LOOP ( 'NONE', ( #154, #227 ) ) ;
#100 = DATE_TIME_ROLE ( 'classification_date' ) ;
#101 = DIRECTION ( 'NONE',  ( 0.000000000000000000, 0.000000000000000000, 1.000000000000000000 ) ) ;
#102 = VERTEX_POINT ( 'NONE', #226 ) ;
#103 = DIRECTION ( 'NONE',  ( -1.000000000000000000, 0.000000000000000000, 0.000000000000000000 ) ) ;
#104 = EDGE_CURVE ( 'NONE', #80, #198, #235, .T. ) ;
#105 = DIRECTION ( 'NONE',  ( 1.000000000000000000, 0.000000000000000000, -0.000000000000000000 ) ) ;
#106 = ORIENTED_EDGE ( 'NONE', *, *, #272, .F. ) ;
#107 = CARTESIAN_POINT ( 'NONE',  ( 0.000000000000000000, 0.000000000000000000, 0.000000000000000000 ) ) ;
#108 = CIRCLE ( 'NONE', #279, 3.000000000000000444 ) ;
#109 = EDGE_CURVE ( 'NONE', #194, #175, #72, .T. ) ;
#110 = CARTESIAN_POINT ( 'NONE',  ( -1.700000000000000400, 2.081899558550500773E-16, 2.999999999999997335 ) ) ;
#111 =( LENGTH_UNIT ( ) NAMED_UNIT ( * ) SI_UNIT ( .MILLI., .METRE. ) );
#112 = CARTESIAN_POINT ( 'NONE',  ( 1.500000000000000222, 1.836970198721030181E-16, 128.0000000000000000 ) ) ;
#113 = AXIS2_PLACEMENT_3D ( 'NONE', #91, #20, #186 ) ;
#114 = CARTESIAN_POINT ( 'NONE',  ( 0.000000000000000000, 0.000000000000000000, 0.000000000000000000 ) ) ;
#115 = PERSON_AND_ORGANIZATION ( #42, #176 ) ;
#116 = ADVANCED_BREP_SHAPE_REPRESENTATION ( 'd98d', ( #238, #181 ), #69 ) ;
#117 = AXIS2_PLACEMENT_3D ( 'NONE', #223, #199, #273 ) ;
#118 = DATE_AND_TIME ( #284, #300 ) ;
#119 = PRODUCT_RELATED_PRODUCT_CATEGORY ( 'detail', '', ( #245 ) ) ;
#120 = CC_DESIGN_SECURITY_CLASSIFICATION ( #222, ( #138 ) ) ;
#121 = COORDINATED_UNIVERSAL_TIME_OFFSET ( 1, 0, .AHEAD. ) ;
#122 = EDGE_CURVE ( 'NONE', #102, #247, #270, .T. ) ;
#123 = ORIENTED_EDGE ( 'NONE', *, *, #104, .T. ) ;
#124 = AXIS2_PLACEMENT_3D ( 'NONE', #304, #140, #236 ) ;
#125 = VERTEX_POINT ( 'NONE', #41 ) ;
#126 = DIRECTION ( 'NONE',  ( 1.000000000000000000, 0.000000000000000000, 0.000000000000000000 ) ) ;
#127 = EDGE_LOOP ( 'NONE', ( #219, #32 ) ) ;
#128 = EDGE_CURVE ( 'NONE', #266, #198, #87, .T. ) ;
#129 = FACE_OUTER_BOUND ( 'NONE', #127, .T. ) ;
#130 = EDGE_LOOP ( 'NONE', ( #134, #68, #39, #60 ) ) ;
#131 = DIRECTION ( 'NONE',  ( 0.000000000000000000, 0.000000000000000000, 1.000000000000000000 ) ) ;
#132 = AXIS2_PLACEMENT_3D ( 'NONE', #157, #213, #254 ) ;
#133 = ORIENTED_EDGE ( 'NONE', *, *, #280, .F. ) ;
#134 = ORIENTED_EDGE ( 'NONE', *, *, #182, .F. ) ;
#135 = CARTESIAN_POINT ( 'NONE',  ( -1.500000000000000222, 0.000000000000000000, 128.0000000000000000 ) ) ;
#136 = DIRECTION ( 'NONE',  ( 1.000000000000000000, 0.000000000000000000, 0.000000000000000000 ) ) ;
#137 = DIRECTION ( 'NONE',  ( -0.000000000000000000, -0.000000000000000000, -1.000000000000000000 ) ) ;
#138 = PRODUCT_DEFINITION_FORMATION_WITH_SPECIFIED_SOURCE ( 'LIBOVOLNÝ', '', #245, .NOT_KNOWN. ) ;
#139 = ADVANCED_FACE ( 'NONE', ( #61 ), #246, .T. ) ;
#140 = DIRECTION ( 'NONE',  ( 0.000000000000000000, 0.000000000000000000, 1.000000000000000000 ) ) ;
#141 = AXIS2_PLACEMENT_3D ( 'NONE', #82, #150, #126 ) ;
#142 = LINE ( 'NONE', #278, #264 ) ;
#143 = MECHANICAL_CONTEXT ( 'NONE', #148, 'mechanical' ) ;
#144 = COORDINATED_UNIVERSAL_TIME_OFFSET ( 1, 0, .AHEAD. ) ;
#145 = APPROVAL_DATE_TIME ( #261, #298 ) ;
#146 =( NAMED_UNIT ( * ) SI_UNIT ( $, .STERADIAN. ) SOLID_ANGLE_UNIT ( ) );
#147 = PERSON_AND_ORGANIZATION_ROLE ( 'creator' ) ;
#148 = APPLICATION_CONTEXT ( 'configuration controlled 3d designs of mechanical parts and assemblies' ) ;
#149 = ADVANCED_FACE ( 'NONE', ( #21 ), #244, .F. ) ;
#150 = DIRECTION ( 'NONE',  ( -0.000000000000000000, -0.000000000000000000, -1.000000000000000000 ) ) ;
#151 = EDGE_CURVE ( 'NONE', #198, #80, #90, .T. ) ;
#152 = CARTESIAN_POINT ( 'NONE',  ( -3.000000000000000444, 0.000000000000000000, 3.000000000000000000 ) ) ;
#153 = ORIENTED_EDGE ( 'NONE', *, *, #16, .F. ) ;
#154 = ORIENTED_EDGE ( 'NONE', *, *, #280, .T. ) ;
#155 = EDGE_LOOP ( 'NONE', ( #6, #290, #174, #203 ) ) ;
#156 = ORIENTED_EDGE ( 'NONE', *, *, #151, .T. ) ;
#157 = CARTESIAN_POINT ( 'NONE',  ( 0.000000000000000000, 0.000000000000000000, 3.199999999999994404 ) ) ;
#158 = CARTESIAN_POINT ( 'NONE',  ( 1.500000000000000222, 1.836970198721030181E-16, 128.0000000000000000 ) ) ;
#159 = DIRECTION ( 'NONE',  ( 0.000000000000000000, 0.000000000000000000, 1.000000000000000000 ) ) ;
#160 = EDGE_CURVE ( 'NONE', #14, #80, #62, .T. ) ;
#161 = DIRECTION ( 'NONE',  ( 0.000000000000000000, 0.000000000000000000, -1.000000000000000000 ) ) ;
#162 = CYLINDRICAL_SURFACE ( 'NONE', #305, 1.500000000000000222 ) ;
#163 = PERSON_AND_ORGANIZATION ( #42, #176 ) ;
#164 = APPLICATION_CONTEXT ( 'configuration controlled 3d designs of mechanical parts and assemblies' ) ;
#165 = PERSON_AND_ORGANIZATION ( #42, #176 ) ;
#166 = CC_DESIGN_APPROVAL ( #232, ( #138 ) ) ;
#167 = PERSON_AND_ORGANIZATION ( #42, #176 ) ;
#168 = PERSON_AND_ORGANIZATION ( #42, #176 ) ;
#169 = CIRCLE ( 'NONE', #212, 3.000000000000000444 ) ;
#170 = ORIENTED_EDGE ( 'NONE', *, *, #128, .F. ) ;
#171 = ADVANCED_FACE ( 'NONE', ( #185 ), #277, .T. ) ;
#172 = CIRCLE ( 'NONE', #35, 1.500000000000000222 ) ;
#173 = CARTESIAN_POINT ( 'NONE',  ( 0.000000000000000000, 0.000000000000000000, 128.0000000000000000 ) ) ;
#174 = ORIENTED_EDGE ( 'NONE', *, *, #16, .T. ) ;
#175 = VERTEX_POINT ( 'NONE', #112 ) ;
#176 = ORGANIZATION ( 'NEURÈENÝ', 'NEURÈENÝ', '' ) ;
#177 = ORIENTED_EDGE ( 'NONE', *, *, #206, .T. ) ;
#178 = VECTOR ( 'NONE', #268, 1000.000000000000000 ) ;
#179 = DIRECTION ( 'NONE',  ( 1.000000000000000000, 0.000000000000000000, 0.000000000000000000 ) ) ;
#180 = DIRECTION ( 'NONE',  ( 0.000000000000000000, 0.000000000000000000, 1.000000000000000000 ) ) ;
#181 = AXIS2_PLACEMENT_3D ( 'NONE', #50, #51, #262 ) ;
#182 = EDGE_CURVE ( 'NONE', #266, #14, #23, .T. ) ;
#183 = CARTESIAN_POINT ( 'NONE',  ( -1.500000000000000222, 0.000000000000000000, 3.199999999999994404 ) ) ;
#184 = FACE_BOUND ( 'NONE', #15, .T. ) ;
#185 = FACE_OUTER_BOUND ( 'NONE', #249, .T. ) ;
#186 = DIRECTION ( 'NONE',  ( 1.000000000000000000, 0.000000000000000000, -0.000000000000000000 ) ) ;
#187 = CALENDAR_DATE ( 2022, 7, 7 ) ;
#188 = APPROVAL_PERSON_ORGANIZATION ( #167, #232, #216 ) ;
#189 = APPROVAL_DATE_TIME ( #215, #232 ) ;
#190 = COORDINATED_UNIVERSAL_TIME_OFFSET ( 1, 0, .AHEAD. ) ;
#191 = ADVANCED_FACE ( 'NONE', ( #301 ), #234, .F. ) ;
#192 = EDGE_CURVE ( 'NONE', #175, #194, #259, .T. ) ;
#193 = EDGE_LOOP ( 'NONE', ( #294, #287 ) ) ;
#194 = VERTEX_POINT ( 'NONE', #135 ) ;
#195 = ADVANCED_FACE ( 'NONE', ( #302 ), #162, .T. ) ;
#196 = CARTESIAN_POINT ( 'NONE',  ( 0.000000000000000000, 0.000000000000000000, 128.0000000000000000 ) ) ;
#197 = DIRECTION ( 'NONE',  ( 0.000000000000000000, 0.000000000000000000, 1.000000000000000000 ) ) ;
#198 = VERTEX_POINT ( 'NONE', #110 ) ;
#199 = DIRECTION ( 'NONE',  ( 0.000000000000000000, 0.000000000000000000, 1.000000000000000000 ) ) ;
#200 = LOCAL_TIME ( 14, 55, 27.00000000000000000, #190 ) ;
#201 = ORIENTED_EDGE ( 'NONE', *, *, #31, .T. ) ;
#202 = FACE_OUTER_BOUND ( 'NONE', #12, .T. ) ;
#203 = ORIENTED_EDGE ( 'NONE', *, *, #251, .F. ) ;
#204 = EDGE_CURVE ( 'NONE', #175, #14, #73, .T. ) ;
#205 = CARTESIAN_POINT ( 'NONE',  ( 3.000000000000000444, 3.673940397442060361E-16, 3.000000000000000000 ) ) ;
#206 = EDGE_CURVE ( 'NONE', #125, #10, #94, .T. ) ;
#207 = DIRECTION ( 'NONE',  ( -1.000000000000000000, 0.000000000000000000, 0.000000000000000000 ) ) ;
#208 = CC_DESIGN_PERSON_AND_ORGANIZATION_ASSIGNMENT ( #97, #265, ( #138 ) ) ;
#209 =( NAMED_UNIT ( * ) PLANE_ANGLE_UNIT ( ) SI_UNIT ( $, .RADIAN. ) );
#210 = CIRCLE ( 'NONE', #117, 3.000000000000000444 ) ;
#211 = DIRECTION ( 'NONE',  ( 0.000000000000000000, -1.000000000000000000, 0.000000000000000000 ) ) ;
#212 = AXIS2_PLACEMENT_3D ( 'NONE', #275, #74, #71 ) ;
#213 = DIRECTION ( 'NONE',  ( 0.000000000000000000, 0.000000000000000000, 1.000000000000000000 ) ) ;
#214 = CALENDAR_DATE ( 2022, 7, 7 ) ;
#215 = DATE_AND_TIME ( #282, #200 ) ;
#216 = APPROVAL_ROLE ( '' ) ;
#217 = CC_DESIGN_PERSON_AND_ORGANIZATION_ASSIGNMENT ( #98, #58, ( #222 ) ) ;
#218 = APPROVAL_STATUS ( 'not_yet_approved' ) ;
#219 = ORIENTED_EDGE ( 'NONE', *, *, #109, .T. ) ;
#220 = AXIS2_PLACEMENT_3D ( 'NONE', #24, #92, #256 ) ;
#221 = ORIENTED_EDGE ( 'NONE', *, *, #122, .F. ) ;
#222 = SECURITY_CLASSIFICATION ( '', '', #28 ) ;
#223 = CARTESIAN_POINT ( 'NONE',  ( 0.000000000000000000, 0.000000000000000000, 0.000000000000000000 ) ) ;
#224 = ORIENTED_EDGE ( 'NONE', *, *, #251, .T. ) ;
#225 = ORIENTED_EDGE ( 'NONE', *, *, #122, .T. ) ;
#226 = CARTESIAN_POINT ( 'NONE',  ( -3.000000000000000444, 0.000000000000000000, 3.000000000000000000 ) ) ;
#227 = ORIENTED_EDGE ( 'NONE', *, *, #272, .T. ) ;
#228 = ORIENTED_EDGE ( 'NONE', *, *, #206, .F. ) ;
#229 = UNCERTAINTY_MEASURE_WITH_UNIT (LENGTH_MEASURE( 1.000000000000000082E-05 ), #111, 'distance_accuracy_value', 'NONE');
#230 = DIRECTION ( 'NONE',  ( -1.000000000000000000, 0.000000000000000000, 0.000000000000000000 ) ) ;
#231 = ADVANCED_FACE ( 'NONE', ( #184, #306 ), #299, .T. ) ;
#232 = APPROVAL ( #25, 'NEURÈENÝ' ) ;
#233 = CARTESIAN_POINT ( 'NONE',  ( 0.000000000000000000, 0.000000000000000000, 3.199999999999994404 ) ) ;
#234 = PLANE ( 'NONE',  #40 ) ;
#235 = CIRCLE ( 'NONE', #141, 1.700000000000000400 ) ;
#236 = DIRECTION ( 'NONE',  ( 1.000000000000000000, 0.000000000000000000, 0.000000000000000000 ) ) ;
#237 = CC_DESIGN_DATE_AND_TIME_ASSIGNMENT ( #1, #100, ( #222 ) ) ;
#238 = MANIFOLD_SOLID_BREP ( 'Zaoblit1', #59 ) ;
#239 = DATE_AND_TIME ( #214, #18 ) ;
#240 = SHAPE_DEFINITION_REPRESENTATION ( #29, #116 ) ;
#241 = AXIS2_PLACEMENT_3D ( 'NONE', #67, #83, #38 ) ;
#242 = ORIENTED_EDGE ( 'NONE', *, *, #182, .T. ) ;
#243 = CARTESIAN_POINT ( 'NONE',  ( -1.700000000000000400, 2.081899558550500773E-16, 3.199999999999994404 ) ) ;
#244 = TOROIDAL_SURFACE ( 'NONE', #132, 1.700000000000000400, 0.2000000000000000111 ) ;
#245 = PRODUCT ( 'd98d', 'd98d', '', ( #143 ) ) ;
#246 = CYLINDRICAL_SURFACE ( 'NONE', #89, 3.000000000000000444 ) ;
#247 = VERTEX_POINT ( 'NONE', #49 ) ;
#248 = CYLINDRICAL_SURFACE ( 'NONE', #241, 3.000000000000000444 ) ;
#249 = EDGE_LOOP ( 'NONE', ( #286, #81, #224, #242 ) ) ;
#250 = VECTOR ( 'NONE', #45, 1000.000000000000000 ) ;
#251 = EDGE_CURVE ( 'NONE', #194, #266, #142, .T. ) ;
#252 = EDGE_LOOP ( 'NONE', ( #170, #153, #8, #269 ) ) ;
#253 = CIRCLE ( 'NONE', #285, 3.000000000000000444 ) ;
#254 = DIRECTION ( 'NONE',  ( 1.000000000000000000, 0.000000000000000000, 0.000000000000000000 ) ) ;
#255 = CARTESIAN_POINT ( 'NONE',  ( 0.000000000000000000, 0.000000000000000000, 3.000000000000000000 ) ) ;
#256 = DIRECTION ( 'NONE',  ( 1.000000000000000000, 0.000000000000000000, 0.000000000000000000 ) ) ;
#257 = CARTESIAN_POINT ( 'NONE',  ( 1.700000000000000400, 0.000000000000000000, 3.199999999999994404 ) ) ;
#258 = DIRECTION ( 'NONE',  ( -0.000000000000000000, -0.000000000000000000, -1.000000000000000000 ) ) ;
#259 = CIRCLE ( 'NONE', #124, 1.500000000000000222 ) ;
#260 = AXIS2_PLACEMENT_3D ( 'NONE', #257, #211, #161 ) ;
#261 = DATE_AND_TIME ( #187, #19 ) ;
#262 = DIRECTION ( 'NONE',  ( 1.000000000000000000, 0.000000000000000000, 0.000000000000000000 ) ) ;
#263 = PERSON_AND_ORGANIZATION_ROLE ( 'design_owner' ) ;
#264 = VECTOR ( 'NONE', #70, 1000.000000000000000 ) ;
#265 = PERSON_AND_ORGANIZATION_ROLE ( 'design_supplier' ) ;
#266 = VERTEX_POINT ( 'NONE', #183 ) ;
#267 = AXIS2_PLACEMENT_3D ( 'NONE', #243, #33, #288 ) ;
#268 = DIRECTION ( 'NONE',  ( -0.000000000000000000, -0.000000000000000000, -1.000000000000000000 ) ) ;
#269 = ORIENTED_EDGE ( 'NONE', *, *, #151, .F. ) ;
#270 = LINE ( 'NONE', #152, #178 ) ;
#271 = CARTESIAN_POINT ( 'NONE',  ( 1.500000000000000222, 1.836970198721030181E-16, 3.199999999999994404 ) ) ;
#272 = EDGE_CURVE ( 'NONE', #125, #102, #169, .T. ) ;
#273 = DIRECTION ( 'NONE',  ( 1.000000000000000000, 0.000000000000000000, 0.000000000000000000 ) ) ;
#274 = CARTESIAN_POINT ( 'NONE',  ( 0.000000000000000000, 0.000000000000000000, 3.199999999999994404 ) ) ;
#275 = CARTESIAN_POINT ( 'NONE',  ( 0.000000000000000000, 0.000000000000000000, 3.000000000000000000 ) ) ;
#276 = DIRECTION ( 'NONE',  ( 1.000000000000000000, 0.000000000000000000, -0.000000000000000000 ) ) ;
#277 = CYLINDRICAL_SURFACE ( 'NONE', #303, 1.500000000000000222 ) ;
#278 = CARTESIAN_POINT ( 'NONE',  ( -1.500000000000000222, 0.000000000000000000, 128.0000000000000000 ) ) ;
#279 = AXIS2_PLACEMENT_3D ( 'NONE', #107, #101, #296 ) ;
#280 = EDGE_CURVE ( 'NONE', #102, #125, #253, .T. ) ;
#281 = COORDINATED_UNIVERSAL_TIME_OFFSET ( 1, 0, .AHEAD. ) ;
#282 = CALENDAR_DATE ( 2022, 7, 7 ) ;
#283 = CC_DESIGN_PERSON_AND_ORGANIZATION_ASSIGNMENT ( #165, #77, ( #85 ) ) ;
#284 = CALENDAR_DATE ( 2022, 7, 7 ) ;
#285 = AXIS2_PLACEMENT_3D ( 'NONE', #255, #44, #136 ) ;
#286 = ORIENTED_EDGE ( 'NONE', *, *, #204, .F. ) ;
#287 = ORIENTED_EDGE ( 'NONE', *, *, #31, .F. ) ;
#288 = DIRECTION ( 'NONE',  ( -1.000000000000000000, 1.224646799147353207E-16, 0.000000000000000000 ) ) ;
#289 = TOROIDAL_SURFACE ( 'NONE', #76, 1.700000000000000400, 0.2000000000000000111 ) ;
#290 = ORIENTED_EDGE ( 'NONE', *, *, #204, .T. ) ;
#291 = CARTESIAN_POINT ( 'NONE',  ( 3.000000000000000444, 3.673940397442060361E-16, 0.000000000000000000 ) ) ;
#292 = CC_DESIGN_APPROVAL ( #298, ( #222 ) ) ;
#293 = CARTESIAN_POINT ( 'NONE',  ( 1.700000000000000400, 0.000000000000000000, 2.999999999999997335 ) ) ;
#294 = ORIENTED_EDGE ( 'NONE', *, *, #57, .F. ) ;
#295 = CARTESIAN_POINT ( 'NONE',  ( 0.000000000000000000, 0.000000000000000000, 3.199999999999994404 ) ) ;
#296 = DIRECTION ( 'NONE',  ( 1.000000000000000000, 0.000000000000000000, 0.000000000000000000 ) ) ;
#297 = DESIGN_CONTEXT ( 'detailed design', #164, 'design' ) ;
#298 = APPROVAL ( #218, 'NEURÈENÝ' ) ;
#299 = PLANE ( 'NONE',  #113 ) ;
#300 = LOCAL_TIME ( 14, 55, 27.00000000000000000, #121 ) ;
#301 = FACE_OUTER_BOUND ( 'NONE', #193, .T. ) ;
#302 = FACE_OUTER_BOUND ( 'NONE', #155, .T. ) ;
#303 = AXIS2_PLACEMENT_3D ( 'NONE', #17, #137, #207 ) ;
#304 = CARTESIAN_POINT ( 'NONE',  ( 0.000000000000000000, 0.000000000000000000, 128.0000000000000000 ) ) ;
#305 = AXIS2_PLACEMENT_3D ( 'NONE', #95, #258, #230 ) ;
#306 = FACE_OUTER_BOUND ( 'NONE', #99, .T. ) ;
#307 = CALENDAR_DATE ( 2022, 7, 7 ) ;
ENDSEC;
END-ISO-10303-21;
