ISO-10303-21;
HEADER;
FILE_DESCRIPTION (( 'STEP AP203' ),
    '1' );
FILE_NAME ('2423.STEP',
    '2023-02-12T11:49:31',
    ( '' ),
    ( '' ),
    'SwSTEP 2.0',
    'SolidWorks 2019',
    '' );
FILE_SCHEMA (( 'CONFIG_CONTROL_DESIGN' ));
ENDSEC;

DATA;
#1 = CARTESIAN_POINT ( 'NONE',  ( 0.000000000000000000, 0.000000000000000000, 250.0000000000000000 ) ) ;
#2 = ADVANCED_BREP_SHAPE_REPRESENTATION ( '2423', ( #189, #38 ), #62 ) ;
#3 = DIRECTION ( 'NONE',  ( 1.000000000000000000, 0.000000000000000000, 0.000000000000000000 ) ) ;
#4 = DIRECTION ( 'NONE',  ( 0.000000000000000000, 0.000000000000000000, 1.000000000000000000 ) ) ;
#5 = EDGE_LOOP ( 'NONE', ( #198, #220, #214, #122 ) ) ;
#6 = LOCAL_TIME ( 12, 49, 31.00000000000000000, #132 ) ;
#7 = CC_DESIGN_APPROVAL ( #176, ( #182 ) ) ;
#8 = DIRECTION ( 'NONE',  ( 1.000000000000000000, 0.000000000000000000, 0.000000000000000000 ) ) ;
#9 = PRODUCT_RELATED_PRODUCT_CATEGORY ( 'detail', '', ( #160 ) ) ;
#10 = DIRECTION ( 'NONE',  ( 0.000000000000000000, 0.000000000000000000, 1.000000000000000000 ) ) ;
#11 = AXIS2_PLACEMENT_3D ( 'NONE', #179, #196, #44 ) ;
#12 = DIRECTION ( 'NONE',  ( -1.000000000000000000, 0.000000000000000000, 0.000000000000000000 ) ) ;
#13 = PLANE ( 'NONE',  #57 ) ;
#14 = DIRECTION ( 'NONE',  ( 1.000000000000000000, 0.000000000000000000, 0.000000000000000000 ) ) ;
#15 = EDGE_CURVE ( 'NONE', #87, #82, #131, .T. ) ;
#16 = DIRECTION ( 'NONE',  ( -0.000000000000000000, -0.000000000000000000, -1.000000000000000000 ) ) ;
#17 = CALENDAR_DATE ( 2023, 12, 2 ) ;
#18 = PERSON ( 'NEURÈENÝ', 'NEURÈENÝ', 'NEURÈENÝ', ('NEURÈENÝ'), ('NEURÈENÝ'), ('NEURÈENÝ') ) ;
#19 = PERSON_AND_ORGANIZATION ( #18, #152 ) ;
#20 = DATE_AND_TIME ( #232, #125 ) ;
#21 = CC_DESIGN_PERSON_AND_ORGANIZATION_ASSIGNMENT ( #171, #58, ( #252 ) ) ;
#22 = AXIS2_PLACEMENT_3D ( 'NONE', #101, #4, #8 ) ;
#23 = CYLINDRICAL_SURFACE ( 'NONE', #210, 2.600000000000000089 ) ;
#24 = DIRECTION ( 'NONE',  ( -1.000000000000000000, 0.000000000000000000, 0.000000000000000000 ) ) ;
#25 = ORIENTED_EDGE ( 'NONE', *, *, #134, .T. ) ;
#26 = ORIENTED_EDGE ( 'NONE', *, *, #73, .F. ) ;
#27 = VERTEX_POINT ( 'NONE', #118 ) ;
#28 = CARTESIAN_POINT ( 'NONE',  ( 0.000000000000000000, 0.000000000000000000, 250.0000000000000000 ) ) ;
#29 = LINE ( 'NONE', #225, #47 ) ;
#30 = CARTESIAN_POINT ( 'NONE',  ( -2.600000000000000089, 0.000000000000000000, 3.000000000000000000 ) ) ;
#31 = PLANE ( 'NONE',  #103 ) ;
#32 = DIRECTION ( 'NONE',  ( 1.000000000000000000, 0.000000000000000000, 0.000000000000000000 ) ) ;
#33 = APPROVAL_DATE_TIME ( #36, #176 ) ;
#34 = APPROVAL_STATUS ( 'not_yet_approved' ) ;
#35 = PERSON_AND_ORGANIZATION_ROLE ( 'design_supplier' ) ;
#36 = DATE_AND_TIME ( #250, #226 ) ;
#37 = DIRECTION ( 'NONE',  ( 1.000000000000000000, 0.000000000000000000, 0.000000000000000000 ) ) ;
#38 = AXIS2_PLACEMENT_3D ( 'NONE', #230, #135, #37 ) ;
#39 = EDGE_CURVE ( 'NONE', #63, #81, #68, .T. ) ;
#40 = VERTEX_POINT ( 'NONE', #66 ) ;
#41 = ORIENTED_EDGE ( 'NONE', *, *, #39, .T. ) ;
#42 = ADVANCED_FACE ( 'NONE', ( #181 ), #23, .T. ) ;
#43 = ORIENTED_EDGE ( 'NONE', *, *, #158, .F. ) ;
#44 = DIRECTION ( 'NONE',  ( 1.000000000000000000, 0.000000000000000000, 0.000000000000000000 ) ) ;
#45 = ADVANCED_FACE ( 'NONE', ( #241 ), #67, .F. ) ;
#46 = DIRECTION ( 'NONE',  ( -0.000000000000000000, -0.000000000000000000, -1.000000000000000000 ) ) ;
#47 = VECTOR ( 'NONE', #130, 1000.000000000000000 ) ;
#48 = CYLINDRICAL_SURFACE ( 'NONE', #121, 5.000000000000000000 ) ;
#49 = APPLICATION_CONTEXT ( 'configuration controlled 3d designs of mechanical parts and assemblies' ) ;
#50 = DIRECTION ( 'NONE',  ( 0.000000000000000000, 0.000000000000000000, 1.000000000000000000 ) ) ;
#51 = CARTESIAN_POINT ( 'NONE',  ( 0.000000000000000000, 0.000000000000000000, 3.000000000000000000 ) ) ;
#52 = MECHANICAL_CONTEXT ( 'NONE', #49, 'mechanical' ) ;
#53 = EDGE_CURVE ( 'NONE', #217, #199, #137, .T. ) ;
#54 = AXIS2_PLACEMENT_3D ( 'NONE', #242, #72, #124 ) ;
#55 = APPROVAL_ROLE ( '' ) ;
#56 = APPROVAL_DATE_TIME ( #229, #200 ) ;
#57 = AXIS2_PLACEMENT_3D ( 'NONE', #109, #187, #88 ) ;
#58 = PERSON_AND_ORGANIZATION_ROLE ( 'creator' ) ;
#59 = DATE_TIME_ROLE ( 'classification_date' ) ;
#60 = CC_DESIGN_APPROVAL ( #255, ( #252 ) ) ;
#61 = ORIENTED_EDGE ( 'NONE', *, *, #53, .T. ) ;
#62 =( GEOMETRIC_REPRESENTATION_CONTEXT ( 3 ) GLOBAL_UNCERTAINTY_ASSIGNED_CONTEXT ( ( #113 ) ) GLOBAL_UNIT_ASSIGNED_CONTEXT ( ( #203, #77, #174 ) ) REPRESENTATION_CONTEXT ( 'NONE', 'WORKASPACE' ) );
#63 = VERTEX_POINT ( 'NONE', #30 ) ;
#64 = EDGE_LOOP ( 'NONE', ( #143, #99, #25, #41 ) ) ;
#65 = PRODUCT_DEFINITION_SHAPE ( 'NONE', 'NONE',  #252 ) ;
#66 = CARTESIAN_POINT ( 'NONE',  ( 5.000000000000000000, 6.123233995736766282E-16, 3.000000000000000000 ) ) ;
#67 = PLANE ( 'NONE',  #78 ) ;
#68 = CIRCLE ( 'NONE', #22, 2.600000000000000089 ) ;
#69 = ADVANCED_FACE ( 'NONE', ( #246 ), #128, .T. ) ;
#70 = DIRECTION ( 'NONE',  ( -0.000000000000000000, -0.000000000000000000, -1.000000000000000000 ) ) ;
#71 = DIRECTION ( 'NONE',  ( -1.000000000000000000, 0.000000000000000000, 0.000000000000000000 ) ) ;
#72 = DIRECTION ( 'NONE',  ( 0.000000000000000000, 0.000000000000000000, 1.000000000000000000 ) ) ;
#73 = EDGE_CURVE ( 'NONE', #27, #40, #169, .T. ) ;
#74 = CARTESIAN_POINT ( 'NONE',  ( -5.000000000000000000, 0.000000000000000000, 0.000000000000000000 ) ) ;
#75 = LINE ( 'NONE', #91, #148 ) ;
#76 = CC_DESIGN_SECURITY_CLASSIFICATION ( #153, ( #182 ) ) ;
#77 =( NAMED_UNIT ( * ) PLANE_ANGLE_UNIT ( ) SI_UNIT ( $, .RADIAN. ) );
#78 = AXIS2_PLACEMENT_3D ( 'NONE', #159, #123, #183 ) ;
#79 = DESIGN_CONTEXT ( 'detailed design', #216, 'design' ) ;
#80 = APPROVAL_DATE_TIME ( #20, #255 ) ;
#81 = VERTEX_POINT ( 'NONE', #245 ) ;
#82 = VERTEX_POINT ( 'NONE', #74 ) ;
#83 = ORIENTED_EDGE ( 'NONE', *, *, #117, .T. ) ;
#84 = AXIS2_PLACEMENT_3D ( 'NONE', #168, #188, #14 ) ;
#85 = EDGE_LOOP ( 'NONE', ( #218, #237 ) ) ;
#86 = CIRCLE ( 'NONE', #213, 2.600000000000000089 ) ;
#87 = VERTEX_POINT ( 'NONE', #93 ) ;
#88 = DIRECTION ( 'NONE',  ( 1.000000000000000000, 0.000000000000000000, -0.000000000000000000 ) ) ;
#89 = FACE_OUTER_BOUND ( 'NONE', #141, .T. ) ;
#90 = EDGE_CURVE ( 'NONE', #199, #81, #75, .T. ) ;
#91 = CARTESIAN_POINT ( 'NONE',  ( 2.600000000000000089, 3.184081677783118191E-16, 250.0000000000000000 ) ) ;
#92 = CIRCLE ( 'NONE', #54, 2.600000000000000089 ) ;
#93 = CARTESIAN_POINT ( 'NONE',  ( 5.000000000000000000, 6.123233995736766282E-16, 0.000000000000000000 ) ) ;
#94 = CC_DESIGN_APPROVAL ( #200, ( #153 ) ) ;
#95 = APPROVAL_ROLE ( '' ) ;
#96 = EDGE_CURVE ( 'NONE', #199, #217, #92, .T. ) ;
#97 = PERSON_AND_ORGANIZATION_ROLE ( 'classification_officer' ) ;
#98 = CC_DESIGN_PERSON_AND_ORGANIZATION_ASSIGNMENT ( #19, #97, ( #153 ) ) ;
#99 = ORIENTED_EDGE ( 'NONE', *, *, #53, .F. ) ;
#100 = ORIENTED_EDGE ( 'NONE', *, *, #96, .F. ) ;
#101 = CARTESIAN_POINT ( 'NONE',  ( 0.000000000000000000, 0.000000000000000000, 3.000000000000000000 ) ) ;
#102 = CC_DESIGN_PERSON_AND_ORGANIZATION_ASSIGNMENT ( #249, #35, ( #182 ) ) ;
#103 = AXIS2_PLACEMENT_3D ( 'NONE', #184, #10, #247 ) ;
#104 = ORIENTED_EDGE ( 'NONE', *, *, #39, .F. ) ;
#105 = DIRECTION ( 'NONE',  ( 0.000000000000000000, 0.000000000000000000, 1.000000000000000000 ) ) ;
#106 = AXIS2_PLACEMENT_3D ( 'NONE', #149, #105, #170 ) ;
#107 = DIRECTION ( 'NONE',  ( -0.000000000000000000, -0.000000000000000000, -1.000000000000000000 ) ) ;
#108 = FACE_OUTER_BOUND ( 'NONE', #164, .T. ) ;
#109 = CARTESIAN_POINT ( 'NONE',  ( 0.000000000000000000, 0.000000000000000000, 250.0000000000000000 ) ) ;
#110 = CC_DESIGN_DATE_AND_TIME_ASSIGNMENT ( #251, #59, ( #153 ) ) ;
#111 = SECURITY_CLASSIFICATION_LEVEL ( 'unclassified' ) ;
#112 = PERSON_AND_ORGANIZATION ( #18, #152 ) ;
#113 = UNCERTAINTY_MEASURE_WITH_UNIT (LENGTH_MEASURE( 1.000000000000000082E-05 ), #203, 'distance_accuracy_value', 'NONE');
#114 = SHAPE_DEFINITION_REPRESENTATION ( #65, #2 ) ;
#115 = APPROVAL_STATUS ( 'not_yet_approved' ) ;
#116 = AXIS2_PLACEMENT_3D ( 'NONE', #206, #223, #32 ) ;
#117 = EDGE_CURVE ( 'NONE', #27, #82, #144, .T. ) ;
#118 = CARTESIAN_POINT ( 'NONE',  ( -5.000000000000000000, 0.000000000000000000, 3.000000000000000000 ) ) ;
#119 = ORIENTED_EDGE ( 'NONE', *, *, #248, .F. ) ;
#120 = ORIENTED_EDGE ( 'NONE', *, *, #96, .T. ) ;
#121 = AXIS2_PLACEMENT_3D ( 'NONE', #221, #46, #71 ) ;
#122 = ORIENTED_EDGE ( 'NONE', *, *, #117, .F. ) ;
#123 = DIRECTION ( 'NONE',  ( 0.000000000000000000, 0.000000000000000000, 1.000000000000000000 ) ) ;
#124 = DIRECTION ( 'NONE',  ( 1.000000000000000000, 0.000000000000000000, 0.000000000000000000 ) ) ;
#125 = LOCAL_TIME ( 12, 49, 31.00000000000000000, #254 ) ;
#126 = CC_DESIGN_DATE_AND_TIME_ASSIGNMENT ( #173, #175, ( #252 ) ) ;
#127 = CARTESIAN_POINT ( 'NONE',  ( -5.000000000000000000, 0.000000000000000000, 3.000000000000000000 ) ) ;
#128 = CYLINDRICAL_SURFACE ( 'NONE', #165, 5.000000000000000000 ) ;
#129 = CARTESIAN_POINT ( 'NONE',  ( 0.000000000000000000, 0.000000000000000000, 3.000000000000000000 ) ) ;
#130 = DIRECTION ( 'NONE',  ( -0.000000000000000000, -0.000000000000000000, -1.000000000000000000 ) ) ;
#131 = CIRCLE ( 'NONE', #11, 5.000000000000000000 ) ;
#132 = COORDINATED_UNIVERSAL_TIME_OFFSET ( 1, 0, .AHEAD. ) ;
#133 = COORDINATED_UNIVERSAL_TIME_OFFSET ( 1, 0, .AHEAD. ) ;
#134 = EDGE_CURVE ( 'NONE', #217, #63, #147, .T. ) ;
#135 = DIRECTION ( 'NONE',  ( 0.000000000000000000, 0.000000000000000000, 1.000000000000000000 ) ) ;
#136 = CALENDAR_DATE ( 2023, 12, 2 ) ;
#137 = CIRCLE ( 'NONE', #207, 2.600000000000000089 ) ;
#138 = APPROVAL_PERSON_ORGANIZATION ( #155, #200, #95 ) ;
#139 = EDGE_LOOP ( 'NONE', ( #119, #238 ) ) ;
#140 = ORIENTED_EDGE ( 'NONE', *, *, #158, .T. ) ;
#141 = EDGE_LOOP ( 'NONE', ( #180, #26, #83, #197 ) ) ;
#142 = ORIENTED_EDGE ( 'NONE', *, *, #134, .F. ) ;
#143 = ORIENTED_EDGE ( 'NONE', *, *, #90, .F. ) ;
#144 = LINE ( 'NONE', #127, #231 ) ;
#145 = CC_DESIGN_PERSON_AND_ORGANIZATION_ASSIGNMENT ( #208, #227, ( #160 ) ) ;
#146 = DIRECTION ( 'NONE',  ( 1.000000000000000000, 0.000000000000000000, 0.000000000000000000 ) ) ;
#147 = LINE ( 'NONE', #244, #236 ) ;
#148 = VECTOR ( 'NONE', #16, 1000.000000000000000 ) ;
#149 = CARTESIAN_POINT ( 'NONE',  ( 0.000000000000000000, 0.000000000000000000, 3.000000000000000000 ) ) ;
#150 = ADVANCED_FACE ( 'NONE', ( #89 ), #48, .T. ) ;
#151 = DIRECTION ( 'NONE',  ( -1.000000000000000000, 0.000000000000000000, 0.000000000000000000 ) ) ;
#152 = ORGANIZATION ( 'NEURÈENÝ', 'NEURÈENÝ', '' ) ;
#153 = SECURITY_CLASSIFICATION ( '', '', #111 ) ;
#154 = COORDINATED_UNIVERSAL_TIME_OFFSET ( 1, 0, .AHEAD. ) ;
#155 = PERSON_AND_ORGANIZATION ( #18, #152 ) ;
#156 = PERSON_AND_ORGANIZATION ( #18, #152 ) ;
#157 = APPLICATION_PROTOCOL_DEFINITION ( 'international standard', 'config_control_design', 1994, #216 ) ;
#158 = EDGE_CURVE ( 'NONE', #81, #63, #86, .T. ) ;
#159 = CARTESIAN_POINT ( 'NONE',  ( 0.000000000000000000, 0.000000000000000000, 0.000000000000000000 ) ) ;
#160 = PRODUCT ( '2423', '2423', '', ( #52 ) ) ;
#161 = ORIENTED_EDGE ( 'NONE', *, *, #90, .T. ) ;
#162 = EDGE_LOOP ( 'NONE', ( #61, #120 ) ) ;
#163 = DIRECTION ( 'NONE',  ( -0.000000000000000000, -0.000000000000000000, -1.000000000000000000 ) ) ;
#164 = EDGE_LOOP ( 'NONE', ( #100, #161, #140, #142 ) ) ;
#165 = AXIS2_PLACEMENT_3D ( 'NONE', #51, #167, #12 ) ;
#166 = FACE_BOUND ( 'NONE', #194, .T. ) ;
#167 = DIRECTION ( 'NONE',  ( -0.000000000000000000, -0.000000000000000000, -1.000000000000000000 ) ) ;
#168 = CARTESIAN_POINT ( 'NONE',  ( 0.000000000000000000, 0.000000000000000000, 0.000000000000000000 ) ) ;
#169 = CIRCLE ( 'NONE', #106, 5.000000000000000000 ) ;
#170 = DIRECTION ( 'NONE',  ( 1.000000000000000000, 0.000000000000000000, 0.000000000000000000 ) ) ;
#171 = PERSON_AND_ORGANIZATION ( #18, #152 ) ;
#172 = CIRCLE ( 'NONE', #116, 5.000000000000000000 ) ;
#173 = DATE_AND_TIME ( #136, #6 ) ;
#174 =( NAMED_UNIT ( * ) SI_UNIT ( $, .STERADIAN. ) SOLID_ANGLE_UNIT ( ) );
#175 = DATE_TIME_ROLE ( 'creation_date' ) ;
#176 = APPROVAL ( #115, 'NEURÈENÝ' ) ;
#177 = CARTESIAN_POINT ( 'NONE',  ( 0.000000000000000000, 0.000000000000000000, 250.0000000000000000 ) ) ;
#178 = EDGE_CURVE ( 'NONE', #40, #87, #29, .T. ) ;
#179 = CARTESIAN_POINT ( 'NONE',  ( 0.000000000000000000, 0.000000000000000000, 0.000000000000000000 ) ) ;
#180 = ORIENTED_EDGE ( 'NONE', *, *, #178, .F. ) ;
#181 = FACE_OUTER_BOUND ( 'NONE', #64, .T. ) ;
#182 = PRODUCT_DEFINITION_FORMATION_WITH_SPECIFIED_SOURCE ( 'LIBOVOLNÝ', '', #160, .NOT_KNOWN. ) ;
#183 = DIRECTION ( 'NONE',  ( 1.000000000000000000, 0.000000000000000000, -0.000000000000000000 ) ) ;
#184 = CARTESIAN_POINT ( 'NONE',  ( 0.000000000000000000, 0.000000000000000000, 3.000000000000000000 ) ) ;
#185 = CARTESIAN_POINT ( 'NONE',  ( 2.600000000000000089, 3.184081677783118191E-16, 250.0000000000000000 ) ) ;
#186 = LOCAL_TIME ( 12, 49, 31.00000000000000000, #190 ) ;
#187 = DIRECTION ( 'NONE',  ( 0.000000000000000000, 0.000000000000000000, 1.000000000000000000 ) ) ;
#188 = DIRECTION ( 'NONE',  ( 0.000000000000000000, 0.000000000000000000, 1.000000000000000000 ) ) ;
#189 = MANIFOLD_SOLID_BREP ( 'Pøidat vysunutím3', #243 ) ;
#190 = COORDINATED_UNIVERSAL_TIME_OFFSET ( 1, 0, .AHEAD. ) ;
#191 = CALENDAR_DATE ( 2023, 12, 2 ) ;
#192 = PERSON_AND_ORGANIZATION_ROLE ( 'creator' ) ;
#193 = AXIS2_PLACEMENT_3D ( 'NONE', #28, #107, #151 ) ;
#194 = EDGE_LOOP ( 'NONE', ( #104, #43 ) ) ;
#195 = ADVANCED_FACE ( 'NONE', ( #108 ), #201, .T. ) ;
#196 = DIRECTION ( 'NONE',  ( 0.000000000000000000, 0.000000000000000000, 1.000000000000000000 ) ) ;
#197 = ORIENTED_EDGE ( 'NONE', *, *, #248, .T. ) ;
#198 = ORIENTED_EDGE ( 'NONE', *, *, #215, .F. ) ;
#199 = VERTEX_POINT ( 'NONE', #185 ) ;
#200 = APPROVAL ( #228, 'NEURÈENÝ' ) ;
#201 = CYLINDRICAL_SURFACE ( 'NONE', #193, 2.600000000000000089 ) ;
#202 = APPROVAL_PERSON_ORGANIZATION ( #112, #176, #211 ) ;
#203 =( LENGTH_UNIT ( ) NAMED_UNIT ( * ) SI_UNIT ( .MILLI., .METRE. ) );
#204 = FACE_OUTER_BOUND ( 'NONE', #85, .T. ) ;
#205 = CARTESIAN_POINT ( 'NONE',  ( -2.600000000000000089, 0.000000000000000000, 250.0000000000000000 ) ) ;
#206 = CARTESIAN_POINT ( 'NONE',  ( 0.000000000000000000, 0.000000000000000000, 3.000000000000000000 ) ) ;
#207 = AXIS2_PLACEMENT_3D ( 'NONE', #1, #235, #3 ) ;
#208 = PERSON_AND_ORGANIZATION ( #18, #152 ) ;
#209 = PERSON_AND_ORGANIZATION ( #18, #152 ) ;
#210 = AXIS2_PLACEMENT_3D ( 'NONE', #177, #163, #24 ) ;
#211 = APPROVAL_ROLE ( '' ) ;
#212 = LOCAL_TIME ( 12, 49, 31.00000000000000000, #133 ) ;
#213 = AXIS2_PLACEMENT_3D ( 'NONE', #129, #50, #146 ) ;
#214 = ORIENTED_EDGE ( 'NONE', *, *, #15, .T. ) ;
#215 = EDGE_CURVE ( 'NONE', #40, #27, #172, .T. ) ;
#216 = APPLICATION_CONTEXT ( 'configuration controlled 3d designs of mechanical parts and assemblies' ) ;
#217 = VERTEX_POINT ( 'NONE', #205 ) ;
#218 = ORIENTED_EDGE ( 'NONE', *, *, #73, .T. ) ;
#219 = ADVANCED_FACE ( 'NONE', ( #166, #204 ), #31, .T. ) ;
#220 = ORIENTED_EDGE ( 'NONE', *, *, #178, .T. ) ;
#221 = CARTESIAN_POINT ( 'NONE',  ( 0.000000000000000000, 0.000000000000000000, 3.000000000000000000 ) ) ;
#222 = FACE_OUTER_BOUND ( 'NONE', #162, .T. ) ;
#223 = DIRECTION ( 'NONE',  ( 0.000000000000000000, 0.000000000000000000, 1.000000000000000000 ) ) ;
#224 = DIRECTION ( 'NONE',  ( -0.000000000000000000, -0.000000000000000000, -1.000000000000000000 ) ) ;
#225 = CARTESIAN_POINT ( 'NONE',  ( 5.000000000000000000, 6.123233995736766282E-16, 3.000000000000000000 ) ) ;
#226 = LOCAL_TIME ( 12, 49, 31.00000000000000000, #154 ) ;
#227 = PERSON_AND_ORGANIZATION_ROLE ( 'design_owner' ) ;
#228 = APPROVAL_STATUS ( 'not_yet_approved' ) ;
#229 = DATE_AND_TIME ( #191, #212 ) ;
#230 = CARTESIAN_POINT ( 'NONE',  ( 0.000000000000000000, 0.000000000000000000, 0.000000000000000000 ) ) ;
#231 = VECTOR ( 'NONE', #224, 1000.000000000000000 ) ;
#232 = CALENDAR_DATE ( 2023, 12, 2 ) ;
#233 = ADVANCED_FACE ( 'NONE', ( #222 ), #13, .T. ) ;
#234 = CIRCLE ( 'NONE', #84, 5.000000000000000000 ) ;
#235 = DIRECTION ( 'NONE',  ( 0.000000000000000000, 0.000000000000000000, 1.000000000000000000 ) ) ;
#236 = VECTOR ( 'NONE', #70, 1000.000000000000000 ) ;
#237 = ORIENTED_EDGE ( 'NONE', *, *, #215, .T. ) ;
#238 = ORIENTED_EDGE ( 'NONE', *, *, #15, .F. ) ;
#239 = CC_DESIGN_PERSON_AND_ORGANIZATION_ASSIGNMENT ( #209, #192, ( #182 ) ) ;
#240 = APPROVAL_PERSON_ORGANIZATION ( #156, #255, #55 ) ;
#241 = FACE_OUTER_BOUND ( 'NONE', #139, .T. ) ;
#242 = CARTESIAN_POINT ( 'NONE',  ( 0.000000000000000000, 0.000000000000000000, 250.0000000000000000 ) ) ;
#243 = CLOSED_SHELL ( 'NONE', ( #195, #69, #150, #219, #45, #42, #233 ) ) ;
#244 = CARTESIAN_POINT ( 'NONE',  ( -2.600000000000000089, 0.000000000000000000, 250.0000000000000000 ) ) ;
#245 = CARTESIAN_POINT ( 'NONE',  ( 2.600000000000000089, 3.184081677783118191E-16, 3.000000000000000000 ) ) ;
#246 = FACE_OUTER_BOUND ( 'NONE', #5, .T. ) ;
#247 = DIRECTION ( 'NONE',  ( 1.000000000000000000, 0.000000000000000000, -0.000000000000000000 ) ) ;
#248 = EDGE_CURVE ( 'NONE', #82, #87, #234, .T. ) ;
#249 = PERSON_AND_ORGANIZATION ( #18, #152 ) ;
#250 = CALENDAR_DATE ( 2023, 12, 2 ) ;
#251 = DATE_AND_TIME ( #17, #186 ) ;
#252 = PRODUCT_DEFINITION ( 'NEZNÁMÝ', '', #182, #79 ) ;
#253 = APPLICATION_PROTOCOL_DEFINITION ( 'international standard', 'config_control_design', 1994, #49 ) ;
#254 = COORDINATED_UNIVERSAL_TIME_OFFSET ( 1, 0, .AHEAD. ) ;
#255 = APPROVAL ( #34, 'NEURÈENÝ' ) ;
ENDSEC;
END-ISO-10303-21;
