ISO-10303-21;
HEADER;
FILE_DESCRIPTION (( 'STEP AP203' ),
    '1' );
FILE_NAME ('9bf7.STEP',
    '2022-07-07T12:55:36',
    ( '' ),
    ( '' ),
    'SwSTEP 2.0',
    'SolidWorks 2019',
    '' );
FILE_SCHEMA (( 'CONFIG_CONTROL_DESIGN' ));
ENDSEC;

DATA;
#1 = PERSON_AND_ORGANIZATION ( #195, #149 ) ;
#2 = PERSON_AND_ORGANIZATION ( #195, #149 ) ;
#3 = VERTEX_POINT ( 'NONE', #77 ) ;
#4 = ORIENTED_EDGE ( 'NONE', *, *, #207, .T. ) ;
#5 = FACE_OUTER_BOUND ( 'NONE', #97, .T. ) ;
#6 = APPROVAL_PERSON_ORGANIZATION ( #70, #288, #25 ) ;
#7 = CARTESIAN_POINT ( 'NONE',  ( -3.000000000000000444, 0.000000000000000000, 0.000000000000000000 ) ) ;
#8 = ORIENTED_EDGE ( 'NONE', *, *, #285, .T. ) ;
#9 = LOCAL_TIME ( 14, 55, 36.00000000000000000, #93 ) ;
#10 = CC_DESIGN_PERSON_AND_ORGANIZATION_ASSIGNMENT ( #282, #283, ( #295 ) ) ;
#11 = CIRCLE ( 'NONE', #219, 3.000000000000000444 ) ;
#12 = DIRECTION ( 'NONE',  ( 0.000000000000000000, 0.000000000000000000, 1.000000000000000000 ) ) ;
#13 = CC_DESIGN_SECURITY_CLASSIFICATION ( #69, ( #295 ) ) ;
#14 = VERTEX_POINT ( 'NONE', #127 ) ;
#15 = CARTESIAN_POINT ( 'NONE',  ( 3.000000000000000444, 3.673940397442060361E-16, 3.000000000000000000 ) ) ;
#16 = CARTESIAN_POINT ( 'NONE',  ( 0.000000000000000000, 0.000000000000000000, 0.000000000000000000 ) ) ;
#17 = CARTESIAN_POINT ( 'NONE',  ( 0.000000000000000000, 0.000000000000000000, 103.0000000000000142 ) ) ;
#18 = DIRECTION ( 'NONE',  ( 0.000000000000000000, 0.000000000000000000, 1.000000000000000000 ) ) ;
#19 = DIRECTION ( 'NONE',  ( 0.000000000000000000, 0.000000000000000000, 1.000000000000000000 ) ) ;
#20 = VECTOR ( 'NONE', #38, 1000.000000000000000 ) ;
#21 = AXIS2_PLACEMENT_3D ( 'NONE', #91, #233, #160 ) ;
#22 = PERSON_AND_ORGANIZATION ( #195, #149 ) ;
#23 = PERSON_AND_ORGANIZATION ( #195, #149 ) ;
#24 = AXIS2_PLACEMENT_3D ( 'NONE', #54, #187, #291 ) ;
#25 = APPROVAL_ROLE ( '' ) ;
#26 = EDGE_CURVE ( 'NONE', #214, #206, #80, .T. ) ;
#27 = ORIENTED_EDGE ( 'NONE', *, *, #26, .T. ) ;
#28 = CLOSED_SHELL ( 'NONE', ( #110, #275, #102, #123, #223, #242, #122, #115, #298 ) ) ;
#29 = PERSON_AND_ORGANIZATION_ROLE ( 'design_owner' ) ;
#30 = CARTESIAN_POINT ( 'NONE',  ( 1.700000000000000400, 0.000000000000000000, 3.199999999999994404 ) ) ;
#31 = EDGE_CURVE ( 'NONE', #284, #248, #142, .T. ) ;
#32 = AXIS2_PLACEMENT_3D ( 'NONE', #146, #215, #243 ) ;
#33 = DIRECTION ( 'NONE',  ( 0.000000000000000000, 0.000000000000000000, 1.000000000000000000 ) ) ;
#34 = ORIENTED_EDGE ( 'NONE', *, *, #285, .F. ) ;
#35 = EDGE_CURVE ( 'NONE', #225, #206, #227, .T. ) ;
#36 = CARTESIAN_POINT ( 'NONE',  ( 0.000000000000000000, 0.000000000000000000, 103.0000000000000142 ) ) ;
#37 = DIRECTION ( 'NONE',  ( -0.000000000000000000, -0.000000000000000000, -1.000000000000000000 ) ) ;
#38 = DIRECTION ( 'NONE',  ( -0.000000000000000000, -0.000000000000000000, -1.000000000000000000 ) ) ;
#39 = FACE_OUTER_BOUND ( 'NONE', #287, .T. ) ;
#40 = DIRECTION ( 'NONE',  ( -1.000000000000000000, 0.000000000000000000, 0.000000000000000000 ) ) ;
#41 = PRODUCT ( '9bf7', '9bf7', '', ( #228 ) ) ;
#42 = AXIS2_PLACEMENT_3D ( 'NONE', #224, #106, #40 ) ;
#43 = EDGE_LOOP ( 'NONE', ( #50, #8 ) ) ;
#44 = CC_DESIGN_PERSON_AND_ORGANIZATION_ASSIGNMENT ( #256, #258, ( #52 ) ) ;
#45 = DIRECTION ( 'NONE',  ( -1.000000000000000000, 1.224646799147353207E-16, 0.000000000000000000 ) ) ;
#46 = CALENDAR_DATE ( 2022, 7, 7 ) ;
#47 = CALENDAR_DATE ( 2022, 7, 7 ) ;
#48 = CIRCLE ( 'NONE', #286, 1.700000000000000400 ) ;
#49 = SHAPE_DEFINITION_REPRESENTATION ( #221, #289 ) ;
#50 = ORIENTED_EDGE ( 'NONE', *, *, #175, .T. ) ;
#51 = APPROVAL_PERSON_ORGANIZATION ( #281, #60, #114 ) ;
#52 = PRODUCT_DEFINITION ( 'NEZNÁMÝ', '', #295, #72 ) ;
#53 = DIRECTION ( 'NONE',  ( 0.000000000000000000, 0.000000000000000000, 1.000000000000000000 ) ) ;
#54 = CARTESIAN_POINT ( 'NONE',  ( 0.000000000000000000, 0.000000000000000000, 103.0000000000000142 ) ) ;
#55 = DIRECTION ( 'NONE',  ( -0.000000000000000000, -0.000000000000000000, -1.000000000000000000 ) ) ;
#56 = DIRECTION ( 'NONE',  ( 0.000000000000000000, -1.000000000000000000, 0.000000000000000000 ) ) ;
#57 = EDGE_CURVE ( 'NONE', #3, #284, #61, .T. ) ;
#58 = EDGE_CURVE ( 'NONE', #206, #241, #293, .T. ) ;
#59 = DIRECTION ( 'NONE',  ( 1.000000000000000000, 0.000000000000000000, 0.000000000000000000 ) ) ;
#60 = APPROVAL ( #137, 'NEURÈENÝ' ) ;
#61 = CIRCLE ( 'NONE', #274, 3.000000000000000444 ) ;
#62 = FACE_OUTER_BOUND ( 'NONE', #266, .T. ) ;
#63 = DIRECTION ( 'NONE',  ( 1.000000000000000000, 0.000000000000000000, 0.000000000000000000 ) ) ;
#64 = PLANE ( 'NONE',  #213 ) ;
#65 = DIRECTION ( 'NONE',  ( 0.000000000000000000, 0.000000000000000000, 1.000000000000000000 ) ) ;
#66 = AXIS2_PLACEMENT_3D ( 'NONE', #128, #141, #192 ) ;
#67 = CC_DESIGN_DATE_AND_TIME_ASSIGNMENT ( #229, #307, ( #52 ) ) ;
#68 = ORIENTED_EDGE ( 'NONE', *, *, #57, .F. ) ;
#69 = SECURITY_CLASSIFICATION ( '', '', #179 ) ;
#70 = PERSON_AND_ORGANIZATION ( #195, #149 ) ;
#71 = AXIS2_PLACEMENT_3D ( 'NONE', #36, #53, #129 ) ;
#72 = DESIGN_CONTEXT ( 'detailed design', #74, 'design' ) ;
#73 = PERSON_AND_ORGANIZATION_ROLE ( 'design_supplier' ) ;
#74 = APPLICATION_CONTEXT ( 'configuration controlled 3d designs of mechanical parts and assemblies' ) ;
#75 = DATE_AND_TIME ( #96, #143 ) ;
#76 = AXIS2_PLACEMENT_3D ( 'NONE', #164, #268, #59 ) ;
#77 = CARTESIAN_POINT ( 'NONE',  ( -3.000000000000000444, 0.000000000000000000, 3.000000000000000000 ) ) ;
#78 = CYLINDRICAL_SURFACE ( 'NONE', #66, 3.000000000000000444 ) ;
#79 = VECTOR ( 'NONE', #144, 1000.000000000000000 ) ;
#80 = LINE ( 'NONE', #168, #204 ) ;
#81 = CC_DESIGN_APPROVAL ( #60, ( #295 ) ) ;
#82 = EDGE_CURVE ( 'NONE', #284, #3, #194, .T. ) ;
#83 = FACE_OUTER_BOUND ( 'NONE', #178, .T. ) ;
#84 = EDGE_CURVE ( 'NONE', #199, #214, #244, .T. ) ;
#85 = CARTESIAN_POINT ( 'NONE',  ( 0.000000000000000000, 0.000000000000000000, 0.000000000000000000 ) ) ;
#86 = DIRECTION ( 'NONE',  ( 1.000000000000000000, 0.000000000000000000, 0.000000000000000000 ) ) ;
#87 = CARTESIAN_POINT ( 'NONE',  ( -1.500000000000000222, 0.000000000000000000, 103.0000000000000142 ) ) ;
#88 = CARTESIAN_POINT ( 'NONE',  ( 1.700000000000000400, 0.000000000000000000, 2.999999999999997335 ) ) ;
#89 = ORIENTED_EDGE ( 'NONE', *, *, #185, .T. ) ;
#90 = ORIENTED_EDGE ( 'NONE', *, *, #185, .F. ) ;
#91 = CARTESIAN_POINT ( 'NONE',  ( 0.000000000000000000, 0.000000000000000000, 0.000000000000000000 ) ) ;
#92 = AXIS2_PLACEMENT_3D ( 'NONE', #16, #18, #174 ) ;
#93 = COORDINATED_UNIVERSAL_TIME_OFFSET ( 1, 0, .AHEAD. ) ;
#94 = CC_DESIGN_APPROVAL ( #288, ( #52 ) ) ;
#95 = APPROVAL_ROLE ( '' ) ;
#96 = CALENDAR_DATE ( 2022, 7, 7 ) ;
#97 = EDGE_LOOP ( 'NONE', ( #108, #184, #265, #176 ) ) ;
#98 = VERTEX_POINT ( 'NONE', #7 ) ;
#99 = CYLINDRICAL_SURFACE ( 'NONE', #24, 1.500000000000000222 ) ;
#100 = FACE_OUTER_BOUND ( 'NONE', #155, .T. ) ;
#101 = EDGE_LOOP ( 'NONE', ( #167, #27, #120, #294 ) ) ;
#102 = ADVANCED_FACE ( 'NONE', ( #100 ), #78, .T. ) ;
#103 = ORIENTED_EDGE ( 'NONE', *, *, #58, .T. ) ;
#104 = ORIENTED_EDGE ( 'NONE', *, *, #57, .T. ) ;
#105 = DIRECTION ( 'NONE',  ( 1.000000000000000000, 0.000000000000000000, 0.000000000000000000 ) ) ;
#106 = DIRECTION ( 'NONE',  ( -0.000000000000000000, -0.000000000000000000, -1.000000000000000000 ) ) ;
#107 = CARTESIAN_POINT ( 'NONE',  ( -3.000000000000000444, 0.000000000000000000, 3.000000000000000000 ) ) ;
#108 = ORIENTED_EDGE ( 'NONE', *, *, #26, .F. ) ;
#109 = CARTESIAN_POINT ( 'NONE',  ( -1.500000000000000222, 0.000000000000000000, 103.0000000000000142 ) ) ;
#110 = ADVANCED_FACE ( 'NONE', ( #210 ), #113, .F. ) ;
#111 = EDGE_LOOP ( 'NONE', ( #133, #68, #89, #4 ) ) ;
#112 = CARTESIAN_POINT ( 'NONE',  ( 3.000000000000000444, 3.673940397442060361E-16, 0.000000000000000000 ) ) ;
#113 = TOROIDAL_SURFACE ( 'NONE', #238, 1.700000000000000400, 0.2000000000000000111 ) ;
#114 = APPROVAL_ROLE ( '' ) ;
#115 = ADVANCED_FACE ( 'NONE', ( #83 ), #264, .T. ) ;
#116 = PERSON_AND_ORGANIZATION_ROLE ( 'classification_officer' ) ;
#117 = AXIS2_PLACEMENT_3D ( 'NONE', #292, #12, #239 ) ;
#118 = CC_DESIGN_PERSON_AND_ORGANIZATION_ASSIGNMENT ( #22, #29, ( #41 ) ) ;
#119 = APPROVAL_PERSON_ORGANIZATION ( #1, #259, #95 ) ;
#120 = ORIENTED_EDGE ( 'NONE', *, *, #157, .T. ) ;
#121 =( NAMED_UNIT ( * ) PLANE_ANGLE_UNIT ( ) SI_UNIT ( $, .RADIAN. ) );
#122 = ADVANCED_FACE ( 'NONE', ( #5 ), #99, .T. ) ;
#123 = ADVANCED_FACE ( 'NONE', ( #166 ), #131, .T. ) ;
#124 = DIRECTION ( 'NONE',  ( 0.000000000000000000, 0.000000000000000000, -1.000000000000000000 ) ) ;
#125 = EDGE_LOOP ( 'NONE', ( #212, #277 ) ) ;
#126 = CC_DESIGN_APPROVAL ( #259, ( #69 ) ) ;
#127 = CARTESIAN_POINT ( 'NONE',  ( -1.700000000000000400, 2.081899558550500773E-16, 2.999999999999997335 ) ) ;
#128 = CARTESIAN_POINT ( 'NONE',  ( 0.000000000000000000, 0.000000000000000000, 3.000000000000000000 ) ) ;
#129 = DIRECTION ( 'NONE',  ( 1.000000000000000000, 0.000000000000000000, -0.000000000000000000 ) ) ;
#130 = CARTESIAN_POINT ( 'NONE',  ( -1.500000000000000222, 0.000000000000000000, 3.199999999999994404 ) ) ;
#131 = CYLINDRICAL_SURFACE ( 'NONE', #280, 3.000000000000000444 ) ;
#132 = CARTESIAN_POINT ( 'NONE',  ( 0.000000000000000000, 0.000000000000000000, 3.199999999999994404 ) ) ;
#133 = ORIENTED_EDGE ( 'NONE', *, *, #31, .F. ) ;
#134 = EDGE_CURVE ( 'NONE', #248, #98, #11, .T. ) ;
#135 = CALENDAR_DATE ( 2022, 7, 7 ) ;
#136 = AXIS2_PLACEMENT_3D ( 'NONE', #153, #148, #45 ) ;
#137 = APPROVAL_STATUS ( 'not_yet_approved' ) ;
#138 = DATE_TIME_ROLE ( 'classification_date' ) ;
#139 = AXIS2_PLACEMENT_3D ( 'NONE', #272, #65, #218 ) ;
#140 = ORIENTED_EDGE ( 'NONE', *, *, #134, .T. ) ;
#141 = DIRECTION ( 'NONE',  ( -0.000000000000000000, -0.000000000000000000, -1.000000000000000000 ) ) ;
#142 = LINE ( 'NONE', #296, #79 ) ;
#143 = LOCAL_TIME ( 14, 55, 36.00000000000000000, #183 ) ;
#144 = DIRECTION ( 'NONE',  ( -0.000000000000000000, -0.000000000000000000, -1.000000000000000000 ) ) ;
#145 = LOCAL_TIME ( 14, 55, 36.00000000000000000, #203 ) ;
#146 = CARTESIAN_POINT ( 'NONE',  ( 0.000000000000000000, 0.000000000000000000, 103.0000000000000142 ) ) ;
#147 = DIRECTION ( 'NONE',  ( 1.000000000000000000, 0.000000000000000000, 0.000000000000000000 ) ) ;
#148 = DIRECTION ( 'NONE',  ( 1.224646799147353207E-16, 1.000000000000000000, -0.000000000000000000 ) ) ;
#149 = ORGANIZATION ( 'NEURÈENÝ', 'NEURÈENÝ', '' ) ;
#150 = DIRECTION ( 'NONE',  ( 1.000000000000000000, 0.000000000000000000, 0.000000000000000000 ) ) ;
#151 = DIRECTION ( 'NONE',  ( 0.000000000000000000, 0.000000000000000000, 1.000000000000000000 ) ) ;
#152 = AXIS2_PLACEMENT_3D ( 'NONE', #30, #56, #124 ) ;
#153 = CARTESIAN_POINT ( 'NONE',  ( -1.700000000000000400, 2.081899558550500773E-16, 3.199999999999994404 ) ) ;
#154 = ORIENTED_EDGE ( 'NONE', *, *, #157, .F. ) ;
#155 = EDGE_LOOP ( 'NONE', ( #253, #189, #140, #90 ) ) ;
#156 = APPROVAL_DATE_TIME ( #279, #288 ) ;
#157 = EDGE_CURVE ( 'NONE', #206, #225, #234, .T. ) ;
#158 = LOCAL_TIME ( 14, 55, 36.00000000000000000, #303 ) ;
#159 = DATE_AND_TIME ( #46, #158 ) ;
#160 = DIRECTION ( 'NONE',  ( 1.000000000000000000, 0.000000000000000000, 0.000000000000000000 ) ) ;
#161 = APPROVAL_DATE_TIME ( #75, #259 ) ;
#162 = ORIENTED_EDGE ( 'NONE', *, *, #84, .T. ) ;
#163 = CC_DESIGN_DATE_AND_TIME_ASSIGNMENT ( #278, #138, ( #69 ) ) ;
#164 = CARTESIAN_POINT ( 'NONE',  ( 0.000000000000000000, 0.000000000000000000, 3.000000000000000000 ) ) ;
#165 = CIRCLE ( 'NONE', #136, 0.2000000000000000944 ) ;
#166 = FACE_OUTER_BOUND ( 'NONE', #111, .T. ) ;
#167 = ORIENTED_EDGE ( 'NONE', *, *, #211, .F. ) ;
#168 = CARTESIAN_POINT ( 'NONE',  ( 1.500000000000000222, 1.836970198721030181E-16, 103.0000000000000142 ) ) ;
#169 = DIRECTION ( 'NONE',  ( 0.000000000000000000, 0.000000000000000000, 1.000000000000000000 ) ) ;
#170 = DIRECTION ( 'NONE',  ( 0.000000000000000000, 0.000000000000000000, 1.000000000000000000 ) ) ;
#171 = CC_DESIGN_PERSON_AND_ORGANIZATION_ASSIGNMENT ( #23, #73, ( #295 ) ) ;
#172 = PLANE ( 'NONE',  #92 ) ;
#173 = DIRECTION ( 'NONE',  ( -0.000000000000000000, -0.000000000000000000, -1.000000000000000000 ) ) ;
#174 = DIRECTION ( 'NONE',  ( 1.000000000000000000, 0.000000000000000000, -0.000000000000000000 ) ) ;
#175 = EDGE_CURVE ( 'NONE', #241, #14, #48, .T. ) ;
#176 = ORIENTED_EDGE ( 'NONE', *, *, #35, .T. ) ;
#177 = CARTESIAN_POINT ( 'NONE',  ( 0.000000000000000000, 0.000000000000000000, 3.000000000000000000 ) ) ;
#178 = EDGE_LOOP ( 'NONE', ( #162, #222 ) ) ;
#179 = SECURITY_CLASSIFICATION_LEVEL ( 'unclassified' ) ;
#180 =( NAMED_UNIT ( * ) SI_UNIT ( $, .STERADIAN. ) SOLID_ANGLE_UNIT ( ) );
#181 = UNCERTAINTY_MEASURE_WITH_UNIT (LENGTH_MEASURE( 1.000000000000000082E-05 ), #220, 'distance_accuracy_value', 'NONE');
#182 = COORDINATED_UNIVERSAL_TIME_OFFSET ( 1, 0, .AHEAD. ) ;
#183 = COORDINATED_UNIVERSAL_TIME_OFFSET ( 1, 0, .AHEAD. ) ;
#184 = ORIENTED_EDGE ( 'NONE', *, *, #84, .F. ) ;
#185 = EDGE_CURVE ( 'NONE', #3, #98, #226, .T. ) ;
#186 = ORIENTED_EDGE ( 'NONE', *, *, #58, .F. ) ;
#187 = DIRECTION ( 'NONE',  ( -0.000000000000000000, -0.000000000000000000, -1.000000000000000000 ) ) ;
#188 = CARTESIAN_POINT ( 'NONE',  ( 0.000000000000000000, 0.000000000000000000, 3.000000000000000000 ) ) ;
#189 = ORIENTED_EDGE ( 'NONE', *, *, #31, .T. ) ;
#190 = ORIENTED_EDGE ( 'NONE', *, *, #35, .F. ) ;
#191 =( GEOMETRIC_REPRESENTATION_CONTEXT ( 3 ) GLOBAL_UNCERTAINTY_ASSIGNED_CONTEXT ( ( #181 ) ) GLOBAL_UNIT_ASSIGNED_CONTEXT ( ( #220, #121, #180 ) ) REPRESENTATION_CONTEXT ( 'NONE', 'WORKASPACE' ) );
#192 = DIRECTION ( 'NONE',  ( -1.000000000000000000, 0.000000000000000000, 0.000000000000000000 ) ) ;
#193 = CARTESIAN_POINT ( 'NONE',  ( 0.000000000000000000, 0.000000000000000000, 3.000000000000000000 ) ) ;
#194 = CIRCLE ( 'NONE', #76, 3.000000000000000444 ) ;
#195 = PERSON ( 'NEURÈENÝ', 'NEURÈENÝ', 'NEURÈENÝ', ('NEURÈENÝ'), ('NEURÈENÝ'), ('NEURÈENÝ') ) ;
#196 = CYLINDRICAL_SURFACE ( 'NONE', #42, 1.500000000000000222 ) ;
#197 = DIRECTION ( 'NONE',  ( 1.000000000000000000, 0.000000000000000000, 0.000000000000000000 ) ) ;
#198 = DIRECTION ( 'NONE',  ( 0.000000000000000000, 0.000000000000000000, 1.000000000000000000 ) ) ;
#199 = VERTEX_POINT ( 'NONE', #87 ) ;
#200 = DIRECTION ( 'NONE',  ( -0.000000000000000000, -0.000000000000000000, -1.000000000000000000 ) ) ;
#201 = APPLICATION_CONTEXT ( 'configuration controlled 3d designs of mechanical parts and assemblies' ) ;
#202 = CIRCLE ( 'NONE', #300, 1.700000000000000400 ) ;
#203 = COORDINATED_UNIVERSAL_TIME_OFFSET ( 1, 0, .AHEAD. ) ;
#204 = VECTOR ( 'NONE', #55, 1000.000000000000000 ) ;
#205 = CALENDAR_DATE ( 2022, 7, 7 ) ;
#206 = VERTEX_POINT ( 'NONE', #270 ) ;
#207 = EDGE_CURVE ( 'NONE', #98, #248, #209, .T. ) ;
#208 = ORIENTED_EDGE ( 'NONE', *, *, #175, .F. ) ;
#209 = CIRCLE ( 'NONE', #240, 3.000000000000000444 ) ;
#210 = FACE_OUTER_BOUND ( 'NONE', #261, .T. ) ;
#211 = EDGE_CURVE ( 'NONE', #214, #199, #271, .T. ) ;
#212 = ORIENTED_EDGE ( 'NONE', *, *, #207, .F. ) ;
#213 = AXIS2_PLACEMENT_3D ( 'NONE', #193, #170, #269 ) ;
#214 = VERTEX_POINT ( 'NONE', #217 ) ;
#215 = DIRECTION ( 'NONE',  ( 0.000000000000000000, 0.000000000000000000, 1.000000000000000000 ) ) ;
#216 = DIRECTION ( 'NONE',  ( 1.000000000000000000, 0.000000000000000000, 0.000000000000000000 ) ) ;
#217 = CARTESIAN_POINT ( 'NONE',  ( 1.500000000000000222, 1.836970198721030181E-16, 103.0000000000000142 ) ) ;
#218 = DIRECTION ( 'NONE',  ( 1.000000000000000000, 0.000000000000000000, 0.000000000000000000 ) ) ;
#219 = AXIS2_PLACEMENT_3D ( 'NONE', #85, #252, #197 ) ;
#220 =( LENGTH_UNIT ( ) NAMED_UNIT ( * ) SI_UNIT ( .MILLI., .METRE. ) );
#221 = PRODUCT_DEFINITION_SHAPE ( 'NONE', 'NONE',  #52 ) ;
#222 = ORIENTED_EDGE ( 'NONE', *, *, #211, .T. ) ;
#223 = ADVANCED_FACE ( 'NONE', ( #246, #62 ), #64, .T. ) ;
#224 = CARTESIAN_POINT ( 'NONE',  ( 0.000000000000000000, 0.000000000000000000, 103.0000000000000142 ) ) ;
#225 = VERTEX_POINT ( 'NONE', #130 ) ;
#226 = LINE ( 'NONE', #107, #20 ) ;
#227 = CIRCLE ( 'NONE', #117, 1.500000000000000222 ) ;
#228 = MECHANICAL_CONTEXT ( 'NONE', #201, 'mechanical' ) ;
#229 = DATE_AND_TIME ( #47, #235 ) ;
#230 = APPROVAL_DATE_TIME ( #159, #60 ) ;
#231 = MANIFOLD_SOLID_BREP ( 'Zaoblit1', #28 ) ;
#232 = EDGE_CURVE ( 'NONE', #225, #14, #165, .T. ) ;
#233 = DIRECTION ( 'NONE',  ( 0.000000000000000000, 0.000000000000000000, 1.000000000000000000 ) ) ;
#234 = CIRCLE ( 'NONE', #139, 1.500000000000000222 ) ;
#235 = LOCAL_TIME ( 14, 55, 36.00000000000000000, #182 ) ;
#236 = ORIENTED_EDGE ( 'NONE', *, *, #232, .F. ) ;
#237 = ORIENTED_EDGE ( 'NONE', *, *, #82, .T. ) ;
#238 = AXIS2_PLACEMENT_3D ( 'NONE', #263, #169, #147 ) ;
#239 = DIRECTION ( 'NONE',  ( 1.000000000000000000, 0.000000000000000000, 0.000000000000000000 ) ) ;
#240 = AXIS2_PLACEMENT_3D ( 'NONE', #273, #151, #150 ) ;
#241 = VERTEX_POINT ( 'NONE', #88 ) ;
#242 = ADVANCED_FACE ( 'NONE', ( #245 ), #172, .F. ) ;
#243 = DIRECTION ( 'NONE',  ( 1.000000000000000000, 0.000000000000000000, 0.000000000000000000 ) ) ;
#244 = CIRCLE ( 'NONE', #32, 1.500000000000000222 ) ;
#245 = FACE_OUTER_BOUND ( 'NONE', #125, .T. ) ;
#246 = FACE_BOUND ( 'NONE', #43, .T. ) ;
#247 = FACE_OUTER_BOUND ( 'NONE', #101, .T. ) ;
#248 = VERTEX_POINT ( 'NONE', #112 ) ;
#249 = LINE ( 'NONE', #109, #262 ) ;
#250 = ORIENTED_EDGE ( 'NONE', *, *, #232, .T. ) ;
#251 = EDGE_CURVE ( 'NONE', #199, #225, #249, .T. ) ;
#252 = DIRECTION ( 'NONE',  ( 0.000000000000000000, 0.000000000000000000, 1.000000000000000000 ) ) ;
#253 = ORIENTED_EDGE ( 'NONE', *, *, #82, .F. ) ;
#254 = PRODUCT_RELATED_PRODUCT_CATEGORY ( 'detail', '', ( #41 ) ) ;
#255 = APPLICATION_PROTOCOL_DEFINITION ( 'international standard', 'config_control_design', 1994, #201 ) ;
#256 = PERSON_AND_ORGANIZATION ( #195, #149 ) ;
#257 = APPROVAL_STATUS ( 'not_yet_approved' ) ;
#258 = PERSON_AND_ORGANIZATION_ROLE ( 'creator' ) ;
#259 = APPROVAL ( #260, 'NEURÈENÝ' ) ;
#260 = APPROVAL_STATUS ( 'not_yet_approved' ) ;
#261 = EDGE_LOOP ( 'NONE', ( #190, #250, #208, #186 ) ) ;
#262 = VECTOR ( 'NONE', #200, 1000.000000000000000 ) ;
#263 = CARTESIAN_POINT ( 'NONE',  ( 0.000000000000000000, 0.000000000000000000, 3.199999999999994404 ) ) ;
#264 = PLANE ( 'NONE',  #71 ) ;
#265 = ORIENTED_EDGE ( 'NONE', *, *, #251, .T. ) ;
#266 = EDGE_LOOP ( 'NONE', ( #104, #237 ) ) ;
#267 = AXIS2_PLACEMENT_3D ( 'NONE', #132, #198, #302 ) ;
#268 = DIRECTION ( 'NONE',  ( 0.000000000000000000, 0.000000000000000000, 1.000000000000000000 ) ) ;
#269 = DIRECTION ( 'NONE',  ( 1.000000000000000000, 0.000000000000000000, -0.000000000000000000 ) ) ;
#270 = CARTESIAN_POINT ( 'NONE',  ( 1.500000000000000222, 1.836970198721030181E-16, 3.199999999999994404 ) ) ;
#271 = CIRCLE ( 'NONE', #305, 1.500000000000000222 ) ;
#272 = CARTESIAN_POINT ( 'NONE',  ( 0.000000000000000000, 0.000000000000000000, 3.199999999999994404 ) ) ;
#273 = CARTESIAN_POINT ( 'NONE',  ( 0.000000000000000000, 0.000000000000000000, 0.000000000000000000 ) ) ;
#274 = AXIS2_PLACEMENT_3D ( 'NONE', #188, #33, #216 ) ;
#275 = ADVANCED_FACE ( 'NONE', ( #247 ), #196, .T. ) ;
#276 = DIRECTION ( 'NONE',  ( -0.000000000000000000, -0.000000000000000000, -1.000000000000000000 ) ) ;
#277 = ORIENTED_EDGE ( 'NONE', *, *, #134, .F. ) ;
#278 = DATE_AND_TIME ( #205, #145 ) ;
#279 = DATE_AND_TIME ( #135, #9 ) ;
#280 = AXIS2_PLACEMENT_3D ( 'NONE', #297, #173, #299 ) ;
#281 = PERSON_AND_ORGANIZATION ( #195, #149 ) ;
#282 = PERSON_AND_ORGANIZATION ( #195, #149 ) ;
#283 = PERSON_AND_ORGANIZATION_ROLE ( 'creator' ) ;
#284 = VERTEX_POINT ( 'NONE', #15 ) ;
#285 = EDGE_CURVE ( 'NONE', #14, #241, #202, .T. ) ;
#286 = AXIS2_PLACEMENT_3D ( 'NONE', #301, #37, #63 ) ;
#287 = EDGE_LOOP ( 'NONE', ( #236, #154, #103, #34 ) ) ;
#288 = APPROVAL ( #257, 'NEURÈENÝ' ) ;
#289 = ADVANCED_BREP_SHAPE_REPRESENTATION ( '9bf7', ( #231, #21 ), #191 ) ;
#290 = TOROIDAL_SURFACE ( 'NONE', #267, 1.700000000000000400, 0.2000000000000000111 ) ;
#291 = DIRECTION ( 'NONE',  ( -1.000000000000000000, 0.000000000000000000, 0.000000000000000000 ) ) ;
#292 = CARTESIAN_POINT ( 'NONE',  ( 0.000000000000000000, 0.000000000000000000, 3.199999999999994404 ) ) ;
#293 = CIRCLE ( 'NONE', #152, 0.2000000000000000944 ) ;
#294 = ORIENTED_EDGE ( 'NONE', *, *, #251, .F. ) ;
#295 = PRODUCT_DEFINITION_FORMATION_WITH_SPECIFIED_SOURCE ( 'LIBOVOLNÝ', '', #41, .NOT_KNOWN. ) ;
#296 = CARTESIAN_POINT ( 'NONE',  ( 3.000000000000000444, 3.673940397442060361E-16, 3.000000000000000000 ) ) ;
#297 = CARTESIAN_POINT ( 'NONE',  ( 0.000000000000000000, 0.000000000000000000, 3.000000000000000000 ) ) ;
#298 = ADVANCED_FACE ( 'NONE', ( #39 ), #290, .F. ) ;
#299 = DIRECTION ( 'NONE',  ( -1.000000000000000000, 0.000000000000000000, 0.000000000000000000 ) ) ;
#300 = AXIS2_PLACEMENT_3D ( 'NONE', #177, #276, #105 ) ;
#301 = CARTESIAN_POINT ( 'NONE',  ( 0.000000000000000000, 0.000000000000000000, 3.000000000000000000 ) ) ;
#302 = DIRECTION ( 'NONE',  ( 1.000000000000000000, 0.000000000000000000, 0.000000000000000000 ) ) ;
#303 = COORDINATED_UNIVERSAL_TIME_OFFSET ( 1, 0, .AHEAD. ) ;
#304 = CC_DESIGN_PERSON_AND_ORGANIZATION_ASSIGNMENT ( #2, #116, ( #69 ) ) ;
#305 = AXIS2_PLACEMENT_3D ( 'NONE', #17, #19, #86 ) ;
#306 = APPLICATION_PROTOCOL_DEFINITION ( 'international standard', 'config_control_design', 1994, #74 ) ;
#307 = DATE_TIME_ROLE ( 'creation_date' ) ;
ENDSEC;
END-ISO-10303-21;
