ISO-10303-21;
HEADER;
FILE_DESCRIPTION (( 'STEP AP203' ),
    '1' );
FILE_NAME ('3945.STEP',
    '2023-02-12T11:19:19',
    ( '' ),
    ( '' ),
    'SwSTEP 2.0',
    'SolidWorks 2019',
    '' );
FILE_SCHEMA (( 'CONFIG_CONTROL_DESIGN' ));
ENDSEC;

DATA;
#1 = ORIENTED_EDGE ( 'NONE', *, *, #169, .F. ) ;
#2 = CARTESIAN_POINT ( 'NONE',  ( -4.000000000000000000, 0.000000000000000000, 400.0000000000000000 ) ) ;
#3 = LINE ( 'NONE', #2, #158 ) ;
#4 = AXIS2_PLACEMENT_3D ( 'NONE', #10, #211, #68 ) ;
#5 = EDGE_CURVE ( 'NONE', #145, #101, #144, .T. ) ;
#6 = EDGE_LOOP ( 'NONE', ( #201, #232, #173, #18 ) ) ;
#7 = CARTESIAN_POINT ( 'NONE',  ( 4.000000000000000000, 4.898587196589411843E-16, 5.000000000000000000 ) ) ;
#8 = EDGE_CURVE ( 'NONE', #90, #188, #3, .T. ) ;
#9 = LOCAL_TIME ( 12, 19, 19.00000000000000000, #213 ) ;
#10 = CARTESIAN_POINT ( 'NONE',  ( 0.000000000000000000, 0.000000000000000000, 400.0000000000000000 ) ) ;
#11 = PERSON_AND_ORGANIZATION ( #176, #242 ) ;
#12 = COORDINATED_UNIVERSAL_TIME_OFFSET ( 1, 0, .AHEAD. ) ;
#13 = EDGE_CURVE ( 'NONE', #145, #90, #241, .T. ) ;
#14 = APPROVAL_STATUS ( 'not_yet_approved' ) ;
#15 = EDGE_LOOP ( 'NONE', ( #1, #64 ) ) ;
#16 = CARTESIAN_POINT ( 'NONE',  ( 0.000000000000000000, 0.000000000000000000, 400.0000000000000000 ) ) ;
#17 = PERSON_AND_ORGANIZATION ( #176, #242 ) ;
#18 = ORIENTED_EDGE ( 'NONE', *, *, #210, .F. ) ;
#19 = CARTESIAN_POINT ( 'NONE',  ( 4.000000000000000000, 4.898587196589411843E-16, 400.0000000000000000 ) ) ;
#20 = EDGE_CURVE ( 'NONE', #249, #234, #143, .T. ) ;
#21 = DIRECTION ( 'NONE',  ( -0.000000000000000000, -0.000000000000000000, -1.000000000000000000 ) ) ;
#22 = APPROVAL_PERSON_ORGANIZATION ( #134, #154, #228 ) ;
#23 = ORIENTED_EDGE ( 'NONE', *, *, #5, .T. ) ;
#24 = CARTESIAN_POINT ( 'NONE',  ( -7.000000000000000000, 0.000000000000000000, 5.000000000000000000 ) ) ;
#25 = CC_DESIGN_PERSON_AND_ORGANIZATION_ASSIGNMENT ( #73, #54, ( #218 ) ) ;
#26 = CARTESIAN_POINT ( 'NONE',  ( 0.000000000000000000, 0.000000000000000000, 5.000000000000000000 ) ) ;
#27 = AXIS2_PLACEMENT_3D ( 'NONE', #246, #155, #84 ) ;
#28 = CARTESIAN_POINT ( 'NONE',  ( 0.000000000000000000, 0.000000000000000000, 0.000000000000000000 ) ) ;
#29 = LOCAL_TIME ( 12, 19, 19.00000000000000000, #233 ) ;
#30 = APPLICATION_PROTOCOL_DEFINITION ( 'international standard', 'config_control_design', 1994, #165 ) ;
#31 =( NAMED_UNIT ( * ) SI_UNIT ( $, .STERADIAN. ) SOLID_ANGLE_UNIT ( ) );
#32 = CALENDAR_DATE ( 2023, 12, 2 ) ;
#33 = CC_DESIGN_SECURITY_CLASSIFICATION ( #83, ( #218 ) ) ;
#34 = APPROVAL_STATUS ( 'not_yet_approved' ) ;
#35 = CARTESIAN_POINT ( 'NONE',  ( 0.000000000000000000, 0.000000000000000000, 5.000000000000000000 ) ) ;
#36 = DIRECTION ( 'NONE',  ( 1.000000000000000000, 0.000000000000000000, 0.000000000000000000 ) ) ;
#37 = DIRECTION ( 'NONE',  ( -0.000000000000000000, -0.000000000000000000, -1.000000000000000000 ) ) ;
#38 = CYLINDRICAL_SURFACE ( 'NONE', #177, 4.000000000000000000 ) ;
#39 = APPLICATION_CONTEXT ( 'configuration controlled 3d designs of mechanical parts and assemblies' ) ;
#40 = DIRECTION ( 'NONE',  ( 0.000000000000000000, 0.000000000000000000, 1.000000000000000000 ) ) ;
#41 = ADVANCED_FACE ( 'NONE', ( #235 ), #42, .T. ) ;
#42 = CYLINDRICAL_SURFACE ( 'NONE', #196, 7.000000000000000000 ) ;
#43 = CARTESIAN_POINT ( 'NONE',  ( -4.000000000000000000, 0.000000000000000000, 5.000000000000000000 ) ) ;
#44 = LINE ( 'NONE', #24, #149 ) ;
#45 = CARTESIAN_POINT ( 'NONE',  ( -7.000000000000000000, 0.000000000000000000, 5.000000000000000000 ) ) ;
#46 = ORIENTED_EDGE ( 'NONE', *, *, #210, .T. ) ;
#47 = FACE_OUTER_BOUND ( 'NONE', #166, .T. ) ;
#48 = AXIS2_PLACEMENT_3D ( 'NONE', #244, #148, #222 ) ;
#49 =( LENGTH_UNIT ( ) NAMED_UNIT ( * ) SI_UNIT ( .MILLI., .METRE. ) );
#50 = CC_DESIGN_PERSON_AND_ORGANIZATION_ASSIGNMENT ( #192, #112, ( #83 ) ) ;
#51 = PERSON_AND_ORGANIZATION_ROLE ( 'creator' ) ;
#52 = CALENDAR_DATE ( 2023, 12, 2 ) ;
#53 = CLOSED_SHELL ( 'NONE', ( #221, #41, #237, #147, #66, #227, #102 ) ) ;
#54 = PERSON_AND_ORGANIZATION_ROLE ( 'creator' ) ;
#55 = VECTOR ( 'NONE', #224, 1000.000000000000000 ) ;
#56 = PERSON_AND_ORGANIZATION_ROLE ( 'design_supplier' ) ;
#57 = PERSON_AND_ORGANIZATION ( #176, #242 ) ;
#58 = ORIENTED_EDGE ( 'NONE', *, *, #63, .F. ) ;
#59 = DIRECTION ( 'NONE',  ( 1.000000000000000000, 0.000000000000000000, 0.000000000000000000 ) ) ;
#60 = CYLINDRICAL_SURFACE ( 'NONE', #137, 4.000000000000000000 ) ;
#61 = ORIENTED_EDGE ( 'NONE', *, *, #207, .T. ) ;
#62 = ORIENTED_EDGE ( 'NONE', *, *, #194, .T. ) ;
#63 = EDGE_CURVE ( 'NONE', #110, #99, #81, .T. ) ;
#64 = ORIENTED_EDGE ( 'NONE', *, *, #194, .F. ) ;
#65 = EDGE_LOOP ( 'NONE', ( #184, #58 ) ) ;
#66 = ADVANCED_FACE ( 'NONE', ( #240 ), #125, .F. ) ;
#67 = CYLINDRICAL_SURFACE ( 'NONE', #27, 7.000000000000000000 ) ;
#68 = DIRECTION ( 'NONE',  ( 1.000000000000000000, 0.000000000000000000, -0.000000000000000000 ) ) ;
#69 = CARTESIAN_POINT ( 'NONE',  ( -7.000000000000000000, 0.000000000000000000, 0.000000000000000000 ) ) ;
#70 = APPROVAL ( #14, 'NEURÈENÝ' ) ;
#71 = DATE_AND_TIME ( #156, #231 ) ;
#72 = COORDINATED_UNIVERSAL_TIME_OFFSET ( 1, 0, .AHEAD. ) ;
#73 = PERSON_AND_ORGANIZATION ( #176, #242 ) ;
#74 = ORIENTED_EDGE ( 'NONE', *, *, #8, .F. ) ;
#75 = AXIS2_PLACEMENT_3D ( 'NONE', #26, #205, #105 ) ;
#76 = EDGE_LOOP ( 'NONE', ( #226, #23, #62, #74 ) ) ;
#77 = DIRECTION ( 'NONE',  ( 1.000000000000000000, 0.000000000000000000, -0.000000000000000000 ) ) ;
#78 = DIRECTION ( 'NONE',  ( -0.000000000000000000, -0.000000000000000000, -1.000000000000000000 ) ) ;
#79 = DIRECTION ( 'NONE',  ( -1.000000000000000000, 0.000000000000000000, 0.000000000000000000 ) ) ;
#80 = PRODUCT_DEFINITION ( 'NEZNÁMÝ', '', #218, #223 ) ;
#81 = CIRCLE ( 'NONE', #225, 7.000000000000000000 ) ;
#82 = CARTESIAN_POINT ( 'NONE',  ( 0.000000000000000000, 0.000000000000000000, 5.000000000000000000 ) ) ;
#83 = SECURITY_CLASSIFICATION ( '', '', #132 ) ;
#84 = DIRECTION ( 'NONE',  ( -1.000000000000000000, 0.000000000000000000, 0.000000000000000000 ) ) ;
#85 = CARTESIAN_POINT ( 'NONE',  ( 7.000000000000000000, 8.572527594031473190E-16, 5.000000000000000000 ) ) ;
#86 = AXIS2_PLACEMENT_3D ( 'NONE', #189, #87, #152 ) ;
#87 = DIRECTION ( 'NONE',  ( 0.000000000000000000, 0.000000000000000000, 1.000000000000000000 ) ) ;
#88 = PLANE ( 'NONE',  #4 ) ;
#89 = AXIS2_PLACEMENT_3D ( 'NONE', #16, #230, #197 ) ;
#90 = VERTEX_POINT ( 'NONE', #204 ) ;
#91 = CALENDAR_DATE ( 2023, 12, 2 ) ;
#92 = PERSON_AND_ORGANIZATION ( #176, #242 ) ;
#93 = DATE_AND_TIME ( #91, #119 ) ;
#94 = CALENDAR_DATE ( 2023, 12, 2 ) ;
#95 = CC_DESIGN_PERSON_AND_ORGANIZATION_ASSIGNMENT ( #11, #56, ( #218 ) ) ;
#96 = CARTESIAN_POINT ( 'NONE',  ( 7.000000000000000000, 8.572527594031473190E-16, 0.000000000000000000 ) ) ;
#97 = DIRECTION ( 'NONE',  ( 0.000000000000000000, 0.000000000000000000, 1.000000000000000000 ) ) ;
#98 = PLANE ( 'NONE',  #127 ) ;
#99 = VERTEX_POINT ( 'NONE', #69 ) ;
#100 = APPROVAL_PERSON_ORGANIZATION ( #92, #167, #161 ) ;
#101 = VERTEX_POINT ( 'NONE', #7 ) ;
#102 = ADVANCED_FACE ( 'NONE', ( #47 ), #88, .T. ) ;
#103 = CARTESIAN_POINT ( 'NONE',  ( 0.000000000000000000, 0.000000000000000000, 400.0000000000000000 ) ) ;
#104 = CARTESIAN_POINT ( 'NONE',  ( 0.000000000000000000, 0.000000000000000000, 5.000000000000000000 ) ) ;
#105 = DIRECTION ( 'NONE',  ( 1.000000000000000000, 0.000000000000000000, 0.000000000000000000 ) ) ;
#106 = EDGE_CURVE ( 'NONE', #99, #110, #185, .T. ) ;
#107 = MECHANICAL_CONTEXT ( 'NONE', #165, 'mechanical' ) ;
#108 = UNCERTAINTY_MEASURE_WITH_UNIT (LENGTH_MEASURE( 1.000000000000000082E-05 ), #49, 'distance_accuracy_value', 'NONE');
#109 = EDGE_CURVE ( 'NONE', #90, #145, #206, .T. ) ;
#110 = VERTEX_POINT ( 'NONE', #96 ) ;
#111 = CIRCLE ( 'NONE', #48, 7.000000000000000000 ) ;
#112 = PERSON_AND_ORGANIZATION_ROLE ( 'classification_officer' ) ;
#113 = EDGE_LOOP ( 'NONE', ( #243, #180, #238, #130 ) ) ;
#114 = APPROVAL_DATE_TIME ( #179, #70 ) ;
#115 = CARTESIAN_POINT ( 'NONE',  ( 4.000000000000000000, 4.898587196589411843E-16, 400.0000000000000000 ) ) ;
#116 = AXIS2_PLACEMENT_3D ( 'NONE', #219, #40, #121 ) ;
#117 = CC_DESIGN_DATE_AND_TIME_ASSIGNMENT ( #157, #229, ( #80 ) ) ;
#118 = APPROVAL_ROLE ( '' ) ;
#119 = LOCAL_TIME ( 12, 19, 19.00000000000000000, #195 ) ;
#120 = DIRECTION ( 'NONE',  ( -0.000000000000000000, -0.000000000000000000, -1.000000000000000000 ) ) ;
#121 = DIRECTION ( 'NONE',  ( 1.000000000000000000, 0.000000000000000000, -0.000000000000000000 ) ) ;
#122 = DIRECTION ( 'NONE',  ( -0.000000000000000000, -0.000000000000000000, -1.000000000000000000 ) ) ;
#123 = CC_DESIGN_APPROVAL ( #167, ( #80 ) ) ;
#124 = CARTESIAN_POINT ( 'NONE',  ( 0.000000000000000000, 0.000000000000000000, 400.0000000000000000 ) ) ;
#125 = PLANE ( 'NONE',  #116 ) ;
#126 = DIRECTION ( 'NONE',  ( 0.000000000000000000, 0.000000000000000000, 1.000000000000000000 ) ) ;
#127 = AXIS2_PLACEMENT_3D ( 'NONE', #104, #186, #77 ) ;
#128 = ADVANCED_BREP_SHAPE_REPRESENTATION ( '3945', ( #131, #86 ), #172 ) ;
#129 = CC_DESIGN_APPROVAL ( #70, ( #218 ) ) ;
#130 = ORIENTED_EDGE ( 'NONE', *, *, #169, .T. ) ;
#131 = MANIFOLD_SOLID_BREP ( 'Pøidat vysunutím3', #53 ) ;
#132 = SECURITY_CLASSIFICATION_LEVEL ( 'unclassified' ) ;
#133 = DATE_AND_TIME ( #52, #255 ) ;
#134 = PERSON_AND_ORGANIZATION ( #176, #242 ) ;
#135 = APPLICATION_PROTOCOL_DEFINITION ( 'international standard', 'config_control_design', 1994, #39 ) ;
#136 = CIRCLE ( 'NONE', #208, 4.000000000000000000 ) ;
#137 = AXIS2_PLACEMENT_3D ( 'NONE', #202, #21, #79 ) ;
#138 = CC_DESIGN_APPROVAL ( #154, ( #83 ) ) ;
#139 = CARTESIAN_POINT ( 'NONE',  ( 0.000000000000000000, 0.000000000000000000, 5.000000000000000000 ) ) ;
#140 = ORIENTED_EDGE ( 'NONE', *, *, #109, .T. ) ;
#141 = PRODUCT_RELATED_PRODUCT_CATEGORY ( 'detail', '', ( #190 ) ) ;
#142 = ORIENTED_EDGE ( 'NONE', *, *, #13, .T. ) ;
#143 = CIRCLE ( 'NONE', #164, 7.000000000000000000 ) ;
#144 = LINE ( 'NONE', #19, #181 ) ;
#145 = VERTEX_POINT ( 'NONE', #115 ) ;
#146 = DIRECTION ( 'NONE',  ( 1.000000000000000000, 0.000000000000000000, 0.000000000000000000 ) ) ;
#147 = ADVANCED_FACE ( 'NONE', ( #254, #183 ), #98, .T. ) ;
#148 = DIRECTION ( 'NONE',  ( 0.000000000000000000, 0.000000000000000000, 1.000000000000000000 ) ) ;
#149 = VECTOR ( 'NONE', #122, 1000.000000000000000 ) ;
#150 = LINE ( 'NONE', #247, #55 ) ;
#151 = PRODUCT_DEFINITION_SHAPE ( 'NONE', 'NONE',  #80 ) ;
#152 = DIRECTION ( 'NONE',  ( 1.000000000000000000, 0.000000000000000000, 0.000000000000000000 ) ) ;
#153 = FACE_OUTER_BOUND ( 'NONE', #191, .T. ) ;
#154 = APPROVAL ( #193, 'NEURÈENÝ' ) ;
#155 = DIRECTION ( 'NONE',  ( -0.000000000000000000, -0.000000000000000000, -1.000000000000000000 ) ) ;
#156 = CALENDAR_DATE ( 2023, 12, 2 ) ;
#157 = DATE_AND_TIME ( #32, #9 ) ;
#158 = VECTOR ( 'NONE', #37, 1000.000000000000000 ) ;
#159 = ORIENTED_EDGE ( 'NONE', *, *, #20, .T. ) ;
#160 = ORIENTED_EDGE ( 'NONE', *, *, #20, .F. ) ;
#161 = APPROVAL_ROLE ( '' ) ;
#162 = ORIENTED_EDGE ( 'NONE', *, *, #106, .T. ) ;
#163 = DIRECTION ( 'NONE',  ( 1.000000000000000000, 0.000000000000000000, 0.000000000000000000 ) ) ;
#164 = AXIS2_PLACEMENT_3D ( 'NONE', #139, #97, #59 ) ;
#165 = APPLICATION_CONTEXT ( 'configuration controlled 3d designs of mechanical parts and assemblies' ) ;
#166 = EDGE_LOOP ( 'NONE', ( #140, #142 ) ) ;
#167 = APPROVAL ( #34, 'NEURÈENÝ' ) ;
#168 =( NAMED_UNIT ( * ) PLANE_ANGLE_UNIT ( ) SI_UNIT ( $, .RADIAN. ) );
#169 = EDGE_CURVE ( 'NONE', #188, #101, #136, .T. ) ;
#170 = DIRECTION ( 'NONE',  ( -0.000000000000000000, -0.000000000000000000, -1.000000000000000000 ) ) ;
#171 = AXIS2_PLACEMENT_3D ( 'NONE', #28, #252, #174 ) ;
#172 =( GEOMETRIC_REPRESENTATION_CONTEXT ( 3 ) GLOBAL_UNCERTAINTY_ASSIGNED_CONTEXT ( ( #108 ) ) GLOBAL_UNIT_ASSIGNED_CONTEXT ( ( #49, #168, #31 ) ) REPRESENTATION_CONTEXT ( 'NONE', 'WORKASPACE' ) );
#173 = ORIENTED_EDGE ( 'NONE', *, *, #63, .T. ) ;
#174 = DIRECTION ( 'NONE',  ( 1.000000000000000000, 0.000000000000000000, 0.000000000000000000 ) ) ;
#175 = SHAPE_DEFINITION_REPRESENTATION ( #151, #128 ) ;
#176 = PERSON ( 'NEURÈENÝ', 'NEURÈENÝ', 'NEURÈENÝ', ('NEURÈENÝ'), ('NEURÈENÝ'), ('NEURÈENÝ') ) ;
#177 = AXIS2_PLACEMENT_3D ( 'NONE', #124, #170, #245 ) ;
#178 = PERSON_AND_ORGANIZATION_ROLE ( 'design_owner' ) ;
#179 = DATE_AND_TIME ( #94, #29 ) ;
#180 = ORIENTED_EDGE ( 'NONE', *, *, #109, .F. ) ;
#181 = VECTOR ( 'NONE', #78, 1000.000000000000000 ) ;
#182 = CIRCLE ( 'NONE', #75, 4.000000000000000000 ) ;
#183 = FACE_OUTER_BOUND ( 'NONE', #251, .T. ) ;
#184 = ORIENTED_EDGE ( 'NONE', *, *, #106, .F. ) ;
#185 = CIRCLE ( 'NONE', #171, 7.000000000000000000 ) ;
#186 = DIRECTION ( 'NONE',  ( 0.000000000000000000, 0.000000000000000000, 1.000000000000000000 ) ) ;
#187 = PERSON_AND_ORGANIZATION ( #176, #242 ) ;
#188 = VERTEX_POINT ( 'NONE', #43 ) ;
#189 = CARTESIAN_POINT ( 'NONE',  ( 0.000000000000000000, 0.000000000000000000, 0.000000000000000000 ) ) ;
#190 = PRODUCT ( '3945', '3945', '', ( #107 ) ) ;
#191 = EDGE_LOOP ( 'NONE', ( #220, #160, #46, #162 ) ) ;
#192 = PERSON_AND_ORGANIZATION ( #176, #242 ) ;
#193 = APPROVAL_STATUS ( 'not_yet_approved' ) ;
#194 = EDGE_CURVE ( 'NONE', #101, #188, #182, .T. ) ;
#195 = COORDINATED_UNIVERSAL_TIME_OFFSET ( 1, 0, .AHEAD. ) ;
#196 = AXIS2_PLACEMENT_3D ( 'NONE', #35, #120, #203 ) ;
#197 = DIRECTION ( 'NONE',  ( 1.000000000000000000, 0.000000000000000000, 0.000000000000000000 ) ) ;
#198 = CC_DESIGN_DATE_AND_TIME_ASSIGNMENT ( #93, #250, ( #83 ) ) ;
#199 = CARTESIAN_POINT ( 'NONE',  ( 0.000000000000000000, 0.000000000000000000, 0.000000000000000000 ) ) ;
#200 = FACE_OUTER_BOUND ( 'NONE', #76, .T. ) ;
#201 = ORIENTED_EDGE ( 'NONE', *, *, #207, .F. ) ;
#202 = CARTESIAN_POINT ( 'NONE',  ( 0.000000000000000000, 0.000000000000000000, 400.0000000000000000 ) ) ;
#203 = DIRECTION ( 'NONE',  ( -1.000000000000000000, 0.000000000000000000, 0.000000000000000000 ) ) ;
#204 = CARTESIAN_POINT ( 'NONE',  ( -4.000000000000000000, 0.000000000000000000, 400.0000000000000000 ) ) ;
#205 = DIRECTION ( 'NONE',  ( 0.000000000000000000, 0.000000000000000000, 1.000000000000000000 ) ) ;
#206 = CIRCLE ( 'NONE', #89, 4.000000000000000000 ) ;
#207 = EDGE_CURVE ( 'NONE', #234, #249, #111, .T. ) ;
#208 = AXIS2_PLACEMENT_3D ( 'NONE', #82, #236, #146 ) ;
#209 = APPROVAL_DATE_TIME ( #133, #154 ) ;
#210 = EDGE_CURVE ( 'NONE', #249, #99, #44, .T. ) ;
#211 = DIRECTION ( 'NONE',  ( 0.000000000000000000, 0.000000000000000000, 1.000000000000000000 ) ) ;
#212 = APPROVAL_DATE_TIME ( #71, #167 ) ;
#213 = COORDINATED_UNIVERSAL_TIME_OFFSET ( 1, 0, .AHEAD. ) ;
#214 = CC_DESIGN_PERSON_AND_ORGANIZATION_ASSIGNMENT ( #17, #51, ( #80 ) ) ;
#215 = DIRECTION ( 'NONE',  ( 0.000000000000000000, 0.000000000000000000, 1.000000000000000000 ) ) ;
#216 = AXIS2_PLACEMENT_3D ( 'NONE', #103, #126, #163 ) ;
#217 = CC_DESIGN_PERSON_AND_ORGANIZATION_ASSIGNMENT ( #187, #178, ( #190 ) ) ;
#218 = PRODUCT_DEFINITION_FORMATION_WITH_SPECIFIED_SOURCE ( 'LIBOVOLNÝ', '', #190, .NOT_KNOWN. ) ;
#219 = CARTESIAN_POINT ( 'NONE',  ( 0.000000000000000000, 0.000000000000000000, 0.000000000000000000 ) ) ;
#220 = ORIENTED_EDGE ( 'NONE', *, *, #248, .F. ) ;
#221 = ADVANCED_FACE ( 'NONE', ( #200 ), #60, .T. ) ;
#222 = DIRECTION ( 'NONE',  ( 1.000000000000000000, 0.000000000000000000, 0.000000000000000000 ) ) ;
#223 = DESIGN_CONTEXT ( 'detailed design', #39, 'design' ) ;
#224 = DIRECTION ( 'NONE',  ( -0.000000000000000000, -0.000000000000000000, -1.000000000000000000 ) ) ;
#225 = AXIS2_PLACEMENT_3D ( 'NONE', #199, #215, #36 ) ;
#226 = ORIENTED_EDGE ( 'NONE', *, *, #13, .F. ) ;
#227 = ADVANCED_FACE ( 'NONE', ( #239 ), #38, .T. ) ;
#228 = APPROVAL_ROLE ( '' ) ;
#229 = DATE_TIME_ROLE ( 'creation_date' ) ;
#230 = DIRECTION ( 'NONE',  ( 0.000000000000000000, 0.000000000000000000, 1.000000000000000000 ) ) ;
#231 = LOCAL_TIME ( 12, 19, 19.00000000000000000, #72 ) ;
#232 = ORIENTED_EDGE ( 'NONE', *, *, #248, .T. ) ;
#233 = COORDINATED_UNIVERSAL_TIME_OFFSET ( 1, 0, .AHEAD. ) ;
#234 = VERTEX_POINT ( 'NONE', #85 ) ;
#235 = FACE_OUTER_BOUND ( 'NONE', #6, .T. ) ;
#236 = DIRECTION ( 'NONE',  ( 0.000000000000000000, 0.000000000000000000, 1.000000000000000000 ) ) ;
#237 = ADVANCED_FACE ( 'NONE', ( #153 ), #67, .T. ) ;
#238 = ORIENTED_EDGE ( 'NONE', *, *, #8, .T. ) ;
#239 = FACE_OUTER_BOUND ( 'NONE', #113, .T. ) ;
#240 = FACE_OUTER_BOUND ( 'NONE', #65, .T. ) ;
#241 = CIRCLE ( 'NONE', #216, 4.000000000000000000 ) ;
#242 = ORGANIZATION ( 'NEURÈENÝ', 'NEURÈENÝ', '' ) ;
#243 = ORIENTED_EDGE ( 'NONE', *, *, #5, .F. ) ;
#244 = CARTESIAN_POINT ( 'NONE',  ( 0.000000000000000000, 0.000000000000000000, 5.000000000000000000 ) ) ;
#245 = DIRECTION ( 'NONE',  ( -1.000000000000000000, 0.000000000000000000, 0.000000000000000000 ) ) ;
#246 = CARTESIAN_POINT ( 'NONE',  ( 0.000000000000000000, 0.000000000000000000, 5.000000000000000000 ) ) ;
#247 = CARTESIAN_POINT ( 'NONE',  ( 7.000000000000000000, 8.572527594031473190E-16, 5.000000000000000000 ) ) ;
#248 = EDGE_CURVE ( 'NONE', #234, #110, #150, .T. ) ;
#249 = VERTEX_POINT ( 'NONE', #45 ) ;
#250 = DATE_TIME_ROLE ( 'classification_date' ) ;
#251 = EDGE_LOOP ( 'NONE', ( #159, #61 ) ) ;
#252 = DIRECTION ( 'NONE',  ( 0.000000000000000000, 0.000000000000000000, 1.000000000000000000 ) ) ;
#253 = APPROVAL_PERSON_ORGANIZATION ( #57, #70, #118 ) ;
#254 = FACE_BOUND ( 'NONE', #15, .T. ) ;
#255 = LOCAL_TIME ( 12, 19, 19.00000000000000000, #12 ) ;
ENDSEC;
END-ISO-10303-21;
