ISO-10303-21;
HEADER;
FILE_DESCRIPTION (( 'STEP AP203' ),
    '1' );
FILE_NAME ('69f0.STEP',
    '2022-06-30T20:25:52',
    ( '' ),
    ( '' ),
    'SwSTEP 2.0',
    'SolidWorks 2019',
    '' );
FILE_SCHEMA (( 'CONFIG_CONTROL_DESIGN' ));
ENDSEC;

DATA;
#1 = EDGE_CURVE ( 'NONE', #7, #70, #53, .T. ) ;
#2 = DIRECTION ( 'NONE',  ( 1.000000000000000000, 0.000000000000000000, 0.000000000000000000 ) ) ;
#3 = EDGE_CURVE ( 'NONE', #7, #189, #67, .T. ) ;
#4 = ORIENTED_EDGE ( 'NONE', *, *, #85, .F. ) ;
#5 = DIRECTION ( 'NONE',  ( -0.000000000000000000, -0.000000000000000000, -1.000000000000000000 ) ) ;
#6 = EDGE_LOOP ( 'NONE', ( #245, #226, #152, #25 ) ) ;
#7 = VERTEX_POINT ( 'NONE', #228 ) ;
#8 = DIRECTION ( 'NONE',  ( 0.000000000000000000, 0.000000000000000000, 1.000000000000000000 ) ) ;
#9 = CIRCLE ( 'NONE', #186, 2.000000000000000000 ) ;
#10 = ORIENTED_EDGE ( 'NONE', *, *, #3, .F. ) ;
#11 = EDGE_LOOP ( 'NONE', ( #115, #243 ) ) ;
#12 = PERSON_AND_ORGANIZATION_ROLE ( 'design_supplier' ) ;
#13 = DIRECTION ( 'NONE',  ( -0.000000000000000000, -0.000000000000000000, -1.000000000000000000 ) ) ;
#14 = APPROVAL_ROLE ( '' ) ;
#15 = AXIS2_PLACEMENT_3D ( 'NONE', #177, #55, #74 ) ;
#16 = CARTESIAN_POINT ( 'NONE',  ( 0.000000000000000000, 0.000000000000000000, 2.000000000000000000 ) ) ;
#17 = CALENDAR_DATE ( 2022, 30, 6 ) ;
#18 = FACE_OUTER_BOUND ( 'NONE', #11, .T. ) ;
#19 = PRODUCT_DEFINITION_FORMATION_WITH_SPECIFIED_SOURCE ( 'LIBOVOLNÝ', '', #88, .NOT_KNOWN. ) ;
#20 = FACE_OUTER_BOUND ( 'NONE', #207, .T. ) ;
#21 = DIRECTION ( 'NONE',  ( -1.000000000000000000, 0.000000000000000000, 0.000000000000000000 ) ) ;
#22 = ORIENTED_EDGE ( 'NONE', *, *, #46, .F. ) ;
#23 = ADVANCED_FACE ( 'NONE', ( #47 ), #132, .T. ) ;
#24 = APPROVAL_ROLE ( '' ) ;
#25 = ORIENTED_EDGE ( 'NONE', *, *, #46, .T. ) ;
#26 = EDGE_CURVE ( 'NONE', #72, #128, #134, .T. ) ;
#27 =( NAMED_UNIT ( * ) PLANE_ANGLE_UNIT ( ) SI_UNIT ( $, .RADIAN. ) );
#28 = DIRECTION ( 'NONE',  ( 1.000000000000000000, 0.000000000000000000, -0.000000000000000000 ) ) ;
#29 = APPROVAL_STATUS ( 'not_yet_approved' ) ;
#30 = LOCAL_TIME ( 22, 25, 52.00000000000000000, #178 ) ;
#31 = EDGE_LOOP ( 'NONE', ( #87, #192, #48, #212 ) ) ;
#32 = APPLICATION_CONTEXT ( 'configuration controlled 3d designs of mechanical parts and assemblies' ) ;
#33 = DATE_AND_TIME ( #97, #213 ) ;
#34 = EDGE_LOOP ( 'NONE', ( #64, #43 ) ) ;
#35 = DIRECTION ( 'NONE',  ( 0.000000000000000000, 0.000000000000000000, 1.000000000000000000 ) ) ;
#36 = PERSON ( 'NEURÈENÝ', 'NEURÈENÝ', 'NEURÈENÝ', ('NEURÈENÝ'), ('NEURÈENÝ'), ('NEURÈENÝ') ) ;
#37 = DATE_TIME_ROLE ( 'classification_date' ) ;
#38 = CIRCLE ( 'NONE', #220, 2.000000000000000000 ) ;
#39 = DIRECTION ( 'NONE',  ( 1.000000000000000000, 0.000000000000000000, 0.000000000000000000 ) ) ;
#40 = APPROVAL ( #168, 'NEURÈENÝ' ) ;
#41 = EDGE_CURVE ( 'NONE', #189, #7, #38, .T. ) ;
#42 = MECHANICAL_CONTEXT ( 'NONE', #118, 'mechanical' ) ;
#43 = ORIENTED_EDGE ( 'NONE', *, *, #57, .F. ) ;
#44 = CARTESIAN_POINT ( 'NONE',  ( 0.000000000000000000, 0.000000000000000000, 0.000000000000000000 ) ) ;
#45 = ORIENTED_EDGE ( 'NONE', *, *, #190, .T. ) ;
#46 = EDGE_CURVE ( 'NONE', #111, #70, #124, .T. ) ;
#47 = FACE_OUTER_BOUND ( 'NONE', #130, .T. ) ;
#48 = ORIENTED_EDGE ( 'NONE', *, *, #91, .T. ) ;
#49 = VECTOR ( 'NONE', #199, 1000.000000000000000 ) ;
#50 = EDGE_CURVE ( 'NONE', #148, #92, #237, .T. ) ;
#51 = COORDINATED_UNIVERSAL_TIME_OFFSET ( 1, 0, .AHEAD. ) ;
#52 = AXIS2_PLACEMENT_3D ( 'NONE', #133, #8, #205 ) ;
#53 = LINE ( 'NONE', #171, #102 ) ;
#54 = APPROVAL_DATE_TIME ( #33, #78 ) ;
#55 = DIRECTION ( 'NONE',  ( 0.000000000000000000, 0.000000000000000000, 1.000000000000000000 ) ) ;
#56 = DIRECTION ( 'NONE',  ( 0.000000000000000000, 0.000000000000000000, 1.000000000000000000 ) ) ;
#57 = EDGE_CURVE ( 'NONE', #128, #72, #225, .T. ) ;
#58 = AXIS2_PLACEMENT_3D ( 'NONE', #151, #149, #2 ) ;
#59 = ADVANCED_FACE ( 'NONE', ( #159, #18 ), #75, .T. ) ;
#60 = PERSON_AND_ORGANIZATION ( #36, #107 ) ;
#61 = CLOSED_SHELL ( 'NONE', ( #76, #144, #221, #59, #161, #203, #23 ) ) ;
#62 = CC_DESIGN_APPROVAL ( #239, ( #145 ) ) ;
#63 = APPLICATION_PROTOCOL_DEFINITION ( 'international standard', 'config_control_design', 1994, #32 ) ;
#64 = ORIENTED_EDGE ( 'NONE', *, *, #26, .F. ) ;
#65 = CARTESIAN_POINT ( 'NONE',  ( 0.000000000000000000, 0.000000000000000000, 0.000000000000000000 ) ) ;
#66 = EDGE_LOOP ( 'NONE', ( #10, #110, #45, #4 ) ) ;
#67 = CIRCLE ( 'NONE', #112, 2.000000000000000000 ) ;
#68 = DIRECTION ( 'NONE',  ( 0.000000000000000000, 0.000000000000000000, 1.000000000000000000 ) ) ;
#69 =( NAMED_UNIT ( * ) SI_UNIT ( $, .STERADIAN. ) SOLID_ANGLE_UNIT ( ) );
#70 = VERTEX_POINT ( 'NONE', #117 ) ;
#71 = APPROVAL_DATE_TIME ( #93, #40 ) ;
#72 = VERTEX_POINT ( 'NONE', #252 ) ;
#73 = DATE_TIME_ROLE ( 'creation_date' ) ;
#74 = DIRECTION ( 'NONE',  ( 1.000000000000000000, 0.000000000000000000, 0.000000000000000000 ) ) ;
#75 = PLANE ( 'NONE',  #160 ) ;
#76 = ADVANCED_FACE ( 'NONE', ( #140 ), #120, .T. ) ;
#77 = CARTESIAN_POINT ( 'NONE',  ( 0.000000000000000000, 0.000000000000000000, 0.000000000000000000 ) ) ;
#78 = APPROVAL ( #29, 'NEURÈENÝ' ) ;
#79 = DATE_AND_TIME ( #100, #129 ) ;
#80 = CARTESIAN_POINT ( 'NONE',  ( 1.000000000000000000, 1.224646799147353207E-16, 102.0000000000000142 ) ) ;
#81 = AXIS2_PLACEMENT_3D ( 'NONE', #139, #35, #250 ) ;
#82 = APPROVAL_PERSON_ORGANIZATION ( #142, #78, #14 ) ;
#83 = CYLINDRICAL_SURFACE ( 'NONE', #103, 2.000000000000000000 ) ;
#84 = CARTESIAN_POINT ( 'NONE',  ( 0.000000000000000000, 0.000000000000000000, 102.0000000000000142 ) ) ;
#85 = EDGE_CURVE ( 'NONE', #189, #111, #197, .T. ) ;
#86 = MANIFOLD_SOLID_BREP ( 'Pøidat vysunutím3', #61 ) ;
#87 = ORIENTED_EDGE ( 'NONE', *, *, #249, .F. ) ;
#88 = PRODUCT ( '69f0', '69f0', '', ( #42 ) ) ;
#89 = FACE_OUTER_BOUND ( 'NONE', #6, .T. ) ;
#90 = FACE_OUTER_BOUND ( 'NONE', #31, .T. ) ;
#91 = EDGE_CURVE ( 'NONE', #92, #72, #179, .T. ) ;
#92 = VERTEX_POINT ( 'NONE', #127 ) ;
#93 = DATE_AND_TIME ( #17, #255 ) ;
#94 = ORIENTED_EDGE ( 'NONE', *, *, #50, .T. ) ;
#95 = SECURITY_CLASSIFICATION_LEVEL ( 'unclassified' ) ;
#96 = DIRECTION ( 'NONE',  ( -0.000000000000000000, -0.000000000000000000, -1.000000000000000000 ) ) ;
#97 = CALENDAR_DATE ( 2022, 30, 6 ) ;
#98 = APPROVAL_PERSON_ORGANIZATION ( #60, #239, #234 ) ;
#99 = DIRECTION ( 'NONE',  ( 1.000000000000000000, 0.000000000000000000, -0.000000000000000000 ) ) ;
#100 = CALENDAR_DATE ( 2022, 30, 6 ) ;
#101 = CARTESIAN_POINT ( 'NONE',  ( -2.000000000000000000, 0.000000000000000000, 2.000000000000000000 ) ) ;
#102 = VECTOR ( 'NONE', #187, 1000.000000000000000 ) ;
#103 = AXIS2_PLACEMENT_3D ( 'NONE', #211, #227, #224 ) ;
#104 = AXIS2_PLACEMENT_3D ( 'NONE', #84, #210, #28 ) ;
#105 = FACE_OUTER_BOUND ( 'NONE', #66, .T. ) ;
#106 = DIRECTION ( 'NONE',  ( 1.000000000000000000, 0.000000000000000000, -0.000000000000000000 ) ) ;
#107 = ORGANIZATION ( 'NEURÈENÝ', 'NEURÈENÝ', '' ) ;
#108 = DIRECTION ( 'NONE',  ( 0.000000000000000000, 0.000000000000000000, 1.000000000000000000 ) ) ;
#109 = DIRECTION ( 'NONE',  ( 1.000000000000000000, 0.000000000000000000, 0.000000000000000000 ) ) ;
#110 = ORIENTED_EDGE ( 'NONE', *, *, #1, .T. ) ;
#111 = VERTEX_POINT ( 'NONE', #125 ) ;
#112 = AXIS2_PLACEMENT_3D ( 'NONE', #246, #68, #216 ) ;
#113 =( GEOMETRIC_REPRESENTATION_CONTEXT ( 3 ) GLOBAL_UNCERTAINTY_ASSIGNED_CONTEXT ( ( #153 ) ) GLOBAL_UNIT_ASSIGNED_CONTEXT ( ( #241, #27, #69 ) ) REPRESENTATION_CONTEXT ( 'NONE', 'WORKASPACE' ) );
#114 = PERSON_AND_ORGANIZATION_ROLE ( 'classification_officer' ) ;
#115 = ORIENTED_EDGE ( 'NONE', *, *, #41, .T. ) ;
#116 = PERSON_AND_ORGANIZATION ( #36, #107 ) ;
#117 = CARTESIAN_POINT ( 'NONE',  ( 2.000000000000000000, 2.449293598294706414E-16, 0.000000000000000000 ) ) ;
#118 = APPLICATION_CONTEXT ( 'configuration controlled 3d designs of mechanical parts and assemblies' ) ;
#119 = COORDINATED_UNIVERSAL_TIME_OFFSET ( 1, 0, .AHEAD. ) ;
#120 = CYLINDRICAL_SURFACE ( 'NONE', #164, 1.000000000000000000 ) ;
#121 = AXIS2_PLACEMENT_3D ( 'NONE', #77, #56, #248 ) ;
#122 = DIRECTION ( 'NONE',  ( -1.000000000000000000, 0.000000000000000000, 0.000000000000000000 ) ) ;
#123 = AXIS2_PLACEMENT_3D ( 'NONE', #204, #131, #188 ) ;
#124 = CIRCLE ( 'NONE', #121, 2.000000000000000000 ) ;
#125 = CARTESIAN_POINT ( 'NONE',  ( -2.000000000000000000, 0.000000000000000000, 0.000000000000000000 ) ) ;
#126 = CC_DESIGN_DATE_AND_TIME_ASSIGNMENT ( #251, #73, ( #254 ) ) ;
#127 = CARTESIAN_POINT ( 'NONE',  ( -1.000000000000000000, 0.000000000000000000, 102.0000000000000142 ) ) ;
#128 = VERTEX_POINT ( 'NONE', #209 ) ;
#129 = LOCAL_TIME ( 22, 25, 52.00000000000000000, #119 ) ;
#130 = EDGE_LOOP ( 'NONE', ( #193, #94 ) ) ;
#131 = DIRECTION ( 'NONE',  ( -0.000000000000000000, -0.000000000000000000, -1.000000000000000000 ) ) ;
#132 = PLANE ( 'NONE',  #104 ) ;
#133 = CARTESIAN_POINT ( 'NONE',  ( 0.000000000000000000, 0.000000000000000000, 0.000000000000000000 ) ) ;
#134 = CIRCLE ( 'NONE', #141, 1.000000000000000000 ) ;
#135 = APPROVAL_PERSON_ORGANIZATION ( #147, #40, #24 ) ;
#136 = CALENDAR_DATE ( 2022, 30, 6 ) ;
#137 = ORIENTED_EDGE ( 'NONE', *, *, #190, .F. ) ;
#138 = APPROVAL_DATE_TIME ( #79, #239 ) ;
#139 = CARTESIAN_POINT ( 'NONE',  ( 0.000000000000000000, 0.000000000000000000, 2.000000000000000000 ) ) ;
#140 = FACE_OUTER_BOUND ( 'NONE', #194, .T. ) ;
#141 = AXIS2_PLACEMENT_3D ( 'NONE', #16, #156, #233 ) ;
#142 = PERSON_AND_ORGANIZATION ( #36, #107 ) ;
#143 = ADVANCED_BREP_SHAPE_REPRESENTATION ( '69f0', ( #86, #52 ), #113 ) ;
#144 = ADVANCED_FACE ( 'NONE', ( #105 ), #184, .T. ) ;
#145 = SECURITY_CLASSIFICATION ( '', '', #95 ) ;
#146 = CARTESIAN_POINT ( 'NONE',  ( 0.000000000000000000, 0.000000000000000000, 102.0000000000000142 ) ) ;
#147 = PERSON_AND_ORGANIZATION ( #36, #107 ) ;
#148 = VERTEX_POINT ( 'NONE', #173 ) ;
#149 = DIRECTION ( 'NONE',  ( 0.000000000000000000, 0.000000000000000000, 1.000000000000000000 ) ) ;
#150 = CIRCLE ( 'NONE', #58, 1.000000000000000000 ) ;
#151 = CARTESIAN_POINT ( 'NONE',  ( 0.000000000000000000, 0.000000000000000000, 102.0000000000000142 ) ) ;
#152 = ORIENTED_EDGE ( 'NONE', *, *, #85, .T. ) ;
#153 = UNCERTAINTY_MEASURE_WITH_UNIT (LENGTH_MEASURE( 1.000000000000000082E-05 ), #241, 'distance_accuracy_value', 'NONE');
#154 = ORIENTED_EDGE ( 'NONE', *, *, #50, .F. ) ;
#155 = EDGE_CURVE ( 'NONE', #92, #148, #150, .T. ) ;
#156 = DIRECTION ( 'NONE',  ( 0.000000000000000000, 0.000000000000000000, 1.000000000000000000 ) ) ;
#157 = COORDINATED_UNIVERSAL_TIME_OFFSET ( 1, 0, .AHEAD. ) ;
#158 = CARTESIAN_POINT ( 'NONE',  ( 0.000000000000000000, 0.000000000000000000, 2.000000000000000000 ) ) ;
#159 = FACE_BOUND ( 'NONE', #34, .T. ) ;
#160 = AXIS2_PLACEMENT_3D ( 'NONE', #158, #235, #99 ) ;
#161 = ADVANCED_FACE ( 'NONE', ( #20 ), #163, .F. ) ;
#162 = PRODUCT_DEFINITION_SHAPE ( 'NONE', 'NONE',  #254 ) ;
#163 = PLANE ( 'NONE',  #172 ) ;
#164 = AXIS2_PLACEMENT_3D ( 'NONE', #219, #13, #122 ) ;
#165 = LOCAL_TIME ( 22, 25, 52.00000000000000000, #51 ) ;
#166 = PERSON_AND_ORGANIZATION ( #36, #107 ) ;
#167 = ORIENTED_EDGE ( 'NONE', *, *, #91, .F. ) ;
#168 = APPROVAL_STATUS ( 'not_yet_approved' ) ;
#169 = ORIENTED_EDGE ( 'NONE', *, *, #249, .T. ) ;
#170 = CYLINDRICAL_SURFACE ( 'NONE', #206, 1.000000000000000000 ) ;
#171 = CARTESIAN_POINT ( 'NONE',  ( 2.000000000000000000, 2.449293598294706414E-16, 2.000000000000000000 ) ) ;
#172 = AXIS2_PLACEMENT_3D ( 'NONE', #44, #108, #106 ) ;
#173 = CARTESIAN_POINT ( 'NONE',  ( 1.000000000000000000, 1.224646799147353207E-16, 102.0000000000000142 ) ) ;
#174 = CC_DESIGN_PERSON_AND_ORGANIZATION_ASSIGNMENT ( #116, #215, ( #254 ) ) ;
#175 = CALENDAR_DATE ( 2022, 30, 6 ) ;
#176 = DIRECTION ( 'NONE',  ( 0.000000000000000000, 0.000000000000000000, 1.000000000000000000 ) ) ;
#177 = CARTESIAN_POINT ( 'NONE',  ( 0.000000000000000000, 0.000000000000000000, 102.0000000000000142 ) ) ;
#178 = COORDINATED_UNIVERSAL_TIME_OFFSET ( 1, 0, .AHEAD. ) ;
#179 = LINE ( 'NONE', #196, #201 ) ;
#180 = PERSON_AND_ORGANIZATION_ROLE ( 'creator' ) ;
#181 = CC_DESIGN_APPROVAL ( #78, ( #19 ) ) ;
#182 = CC_DESIGN_DATE_AND_TIME_ASSIGNMENT ( #232, #37, ( #145 ) ) ;
#183 = CC_DESIGN_PERSON_AND_ORGANIZATION_ASSIGNMENT ( #253, #114, ( #145 ) ) ;
#184 = CYLINDRICAL_SURFACE ( 'NONE', #123, 2.000000000000000000 ) ;
#185 = LINE ( 'NONE', #80, #202 ) ;
#186 = AXIS2_PLACEMENT_3D ( 'NONE', #65, #208, #109 ) ;
#187 = DIRECTION ( 'NONE',  ( -0.000000000000000000, -0.000000000000000000, -1.000000000000000000 ) ) ;
#188 = DIRECTION ( 'NONE',  ( -1.000000000000000000, 0.000000000000000000, 0.000000000000000000 ) ) ;
#189 = VERTEX_POINT ( 'NONE', #247 ) ;
#190 = EDGE_CURVE ( 'NONE', #70, #111, #9, .T. ) ;
#191 = DIRECTION ( 'NONE',  ( -0.000000000000000000, -0.000000000000000000, -1.000000000000000000 ) ) ;
#192 = ORIENTED_EDGE ( 'NONE', *, *, #155, .F. ) ;
#193 = ORIENTED_EDGE ( 'NONE', *, *, #155, .T. ) ;
#194 = EDGE_LOOP ( 'NONE', ( #154, #169, #230, #167 ) ) ;
#195 = PERSON_AND_ORGANIZATION ( #36, #107 ) ;
#196 = CARTESIAN_POINT ( 'NONE',  ( -1.000000000000000000, 0.000000000000000000, 102.0000000000000142 ) ) ;
#197 = LINE ( 'NONE', #101, #49 ) ;
#198 = PRODUCT_RELATED_PRODUCT_CATEGORY ( 'detail', '', ( #88 ) ) ;
#199 = DIRECTION ( 'NONE',  ( -0.000000000000000000, -0.000000000000000000, -1.000000000000000000 ) ) ;
#200 = APPROVAL_STATUS ( 'not_yet_approved' ) ;
#201 = VECTOR ( 'NONE', #96, 1000.000000000000000 ) ;
#202 = VECTOR ( 'NONE', #191, 1000.000000000000000 ) ;
#203 = ADVANCED_FACE ( 'NONE', ( #90 ), #170, .T. ) ;
#204 = CARTESIAN_POINT ( 'NONE',  ( 0.000000000000000000, 0.000000000000000000, 2.000000000000000000 ) ) ;
#205 = DIRECTION ( 'NONE',  ( 1.000000000000000000, 0.000000000000000000, 0.000000000000000000 ) ) ;
#206 = AXIS2_PLACEMENT_3D ( 'NONE', #146, #5, #21 ) ;
#207 = EDGE_LOOP ( 'NONE', ( #22, #137 ) ) ;
#208 = DIRECTION ( 'NONE',  ( 0.000000000000000000, 0.000000000000000000, 1.000000000000000000 ) ) ;
#209 = CARTESIAN_POINT ( 'NONE',  ( 1.000000000000000000, 1.224646799147353207E-16, 2.000000000000000000 ) ) ;
#210 = DIRECTION ( 'NONE',  ( 0.000000000000000000, 0.000000000000000000, 1.000000000000000000 ) ) ;
#211 = CARTESIAN_POINT ( 'NONE',  ( 0.000000000000000000, 0.000000000000000000, 2.000000000000000000 ) ) ;
#212 = ORIENTED_EDGE ( 'NONE', *, *, #26, .T. ) ;
#213 = LOCAL_TIME ( 22, 25, 52.00000000000000000, #157 ) ;
#214 = DESIGN_CONTEXT ( 'detailed design', #32, 'design' ) ;
#215 = PERSON_AND_ORGANIZATION_ROLE ( 'creator' ) ;
#216 = DIRECTION ( 'NONE',  ( 1.000000000000000000, 0.000000000000000000, 0.000000000000000000 ) ) ;
#217 = SHAPE_DEFINITION_REPRESENTATION ( #162, #143 ) ;
#218 = CARTESIAN_POINT ( 'NONE',  ( 0.000000000000000000, 0.000000000000000000, 2.000000000000000000 ) ) ;
#219 = CARTESIAN_POINT ( 'NONE',  ( 0.000000000000000000, 0.000000000000000000, 102.0000000000000142 ) ) ;
#220 = AXIS2_PLACEMENT_3D ( 'NONE', #218, #176, #39 ) ;
#221 = ADVANCED_FACE ( 'NONE', ( #89 ), #83, .T. ) ;
#222 = CC_DESIGN_PERSON_AND_ORGANIZATION_ASSIGNMENT ( #166, #242, ( #88 ) ) ;
#223 = CC_DESIGN_PERSON_AND_ORGANIZATION_ASSIGNMENT ( #195, #12, ( #19 ) ) ;
#224 = DIRECTION ( 'NONE',  ( -1.000000000000000000, 0.000000000000000000, 0.000000000000000000 ) ) ;
#225 = CIRCLE ( 'NONE', #81, 1.000000000000000000 ) ;
#226 = ORIENTED_EDGE ( 'NONE', *, *, #41, .F. ) ;
#227 = DIRECTION ( 'NONE',  ( -0.000000000000000000, -0.000000000000000000, -1.000000000000000000 ) ) ;
#228 = CARTESIAN_POINT ( 'NONE',  ( 2.000000000000000000, 2.449293598294706414E-16, 2.000000000000000000 ) ) ;
#229 = CC_DESIGN_PERSON_AND_ORGANIZATION_ASSIGNMENT ( #238, #180, ( #19 ) ) ;
#230 = ORIENTED_EDGE ( 'NONE', *, *, #57, .T. ) ;
#231 = CC_DESIGN_SECURITY_CLASSIFICATION ( #145, ( #19 ) ) ;
#232 = DATE_AND_TIME ( #175, #165 ) ;
#233 = DIRECTION ( 'NONE',  ( 1.000000000000000000, 0.000000000000000000, 0.000000000000000000 ) ) ;
#234 = APPROVAL_ROLE ( '' ) ;
#235 = DIRECTION ( 'NONE',  ( 0.000000000000000000, 0.000000000000000000, 1.000000000000000000 ) ) ;
#236 = COORDINATED_UNIVERSAL_TIME_OFFSET ( 1, 0, .AHEAD. ) ;
#237 = CIRCLE ( 'NONE', #15, 1.000000000000000000 ) ;
#238 = PERSON_AND_ORGANIZATION ( #36, #107 ) ;
#239 = APPROVAL ( #200, 'NEURÈENÝ' ) ;
#240 = CC_DESIGN_APPROVAL ( #40, ( #254 ) ) ;
#241 =( LENGTH_UNIT ( ) NAMED_UNIT ( * ) SI_UNIT ( .MILLI., .METRE. ) );
#242 = PERSON_AND_ORGANIZATION_ROLE ( 'design_owner' ) ;
#243 = ORIENTED_EDGE ( 'NONE', *, *, #3, .T. ) ;
#244 = APPLICATION_PROTOCOL_DEFINITION ( 'international standard', 'config_control_design', 1994, #118 ) ;
#245 = ORIENTED_EDGE ( 'NONE', *, *, #1, .F. ) ;
#246 = CARTESIAN_POINT ( 'NONE',  ( 0.000000000000000000, 0.000000000000000000, 2.000000000000000000 ) ) ;
#247 = CARTESIAN_POINT ( 'NONE',  ( -2.000000000000000000, 0.000000000000000000, 2.000000000000000000 ) ) ;
#248 = DIRECTION ( 'NONE',  ( 1.000000000000000000, 0.000000000000000000, 0.000000000000000000 ) ) ;
#249 = EDGE_CURVE ( 'NONE', #148, #128, #185, .T. ) ;
#250 = DIRECTION ( 'NONE',  ( 1.000000000000000000, 0.000000000000000000, 0.000000000000000000 ) ) ;
#251 = DATE_AND_TIME ( #136, #30 ) ;
#252 = CARTESIAN_POINT ( 'NONE',  ( -1.000000000000000000, 0.000000000000000000, 2.000000000000000000 ) ) ;
#253 = PERSON_AND_ORGANIZATION ( #36, #107 ) ;
#254 = PRODUCT_DEFINITION ( 'NEZNÁMÝ', '', #19, #214 ) ;
#255 = LOCAL_TIME ( 22, 25, 52.00000000000000000, #236 ) ;
ENDSEC;
END-ISO-10303-21;
