ISO-10303-21;
HEADER;
FILE_DESCRIPTION (( 'STEP AP203' ),
    '1' );
FILE_NAME ('dd37.STEP',
    '2022-07-07T12:25:14',
    ( '' ),
    ( '' ),
    'SwSTEP 2.0',
    'SolidWorks 2019',
    '' );
FILE_SCHEMA (( 'CONFIG_CONTROL_DESIGN' ));
ENDSEC;

DATA;
#1 = PLANE ( 'NONE',  #69 ) ;
#2 = ORIENTED_EDGE ( 'NONE', *, *, #255, .F. ) ;
#3 = DIRECTION ( 'NONE',  ( 1.000000000000000000, 0.000000000000000000, 0.000000000000000000 ) ) ;
#4 = EDGE_CURVE ( 'NONE', #137, #26, #124, .T. ) ;
#5 = ORIENTED_EDGE ( 'NONE', *, *, #87, .T. ) ;
#6 = AXIS2_PLACEMENT_3D ( 'NONE', #78, #27, #211 ) ;
#7 = CARTESIAN_POINT ( 'NONE',  ( 5.500000000000000000, 6.735557395310442023E-16, 5.200000000000009948 ) ) ;
#8 = APPLICATION_CONTEXT ( 'configuration controlled 3d designs of mechanical parts and assemblies' ) ;
#9 = CARTESIAN_POINT ( 'NONE',  ( -5.500000000000000000, 0.000000000000000000, 205.0000000000000284 ) ) ;
#10 = DIRECTION ( 'NONE',  ( 1.000000000000000000, 0.000000000000000000, 0.000000000000000000 ) ) ;
#11 = DIRECTION ( 'NONE',  ( -0.000000000000000000, -0.000000000000000000, -1.000000000000000000 ) ) ;
#12 = DIRECTION ( 'NONE',  ( -0.000000000000000000, -0.000000000000000000, -1.000000000000000000 ) ) ;
#13 = CIRCLE ( 'NONE', #218, 5.699999999999999289 ) ;
#14 = PERSON_AND_ORGANIZATION_ROLE ( 'creator' ) ;
#15 = DATE_AND_TIME ( #102, #247 ) ;
#16 = PRODUCT_DEFINITION_SHAPE ( 'NONE', 'NONE',  #180 ) ;
#17 = CALENDAR_DATE ( 2022, 7, 7 ) ;
#18 = EDGE_LOOP ( 'NONE', ( #225, #243, #232, #182 ) ) ;
#19 = CIRCLE ( 'NONE', #296, 8.000000000000000000 ) ;
#20 = ORIENTED_EDGE ( 'NONE', *, *, #298, .T. ) ;
#21 = VERTEX_POINT ( 'NONE', #47 ) ;
#22 = DIRECTION ( 'NONE',  ( -0.000000000000000000, -0.000000000000000000, -1.000000000000000000 ) ) ;
#23 = CC_DESIGN_APPROVAL ( #125, ( #113 ) ) ;
#24 = ORIENTED_EDGE ( 'NONE', *, *, #77, .T. ) ;
#25 = DIRECTION ( 'NONE',  ( -0.000000000000000000, -0.000000000000000000, -1.000000000000000000 ) ) ;
#26 = VERTEX_POINT ( 'NONE', #111 ) ;
#27 = DIRECTION ( 'NONE',  ( 0.000000000000000000, 0.000000000000000000, 1.000000000000000000 ) ) ;
#28 = VECTOR ( 'NONE', #289, 1000.000000000000000 ) ;
#29 = CC_DESIGN_PERSON_AND_ORGANIZATION_ASSIGNMENT ( #274, #149, ( #178 ) ) ;
#30 = DIRECTION ( 'NONE',  ( -1.000000000000000000, 0.000000000000000000, 0.000000000000000000 ) ) ;
#31 = FACE_OUTER_BOUND ( 'NONE', #174, .T. ) ;
#32 = AXIS2_PLACEMENT_3D ( 'NONE', #72, #147, #30 ) ;
#33 = DIRECTION ( 'NONE',  ( 0.000000000000000000, 0.000000000000000000, 1.000000000000000000 ) ) ;
#34 = EDGE_CURVE ( 'NONE', #246, #48, #278, .T. ) ;
#35 =( NAMED_UNIT ( * ) PLANE_ANGLE_UNIT ( ) SI_UNIT ( $, .RADIAN. ) );
#36 = ORIENTED_EDGE ( 'NONE', *, *, #116, .T. ) ;
#37 = DATE_TIME_ROLE ( 'classification_date' ) ;
#38 = EDGE_CURVE ( 'NONE', #26, #137, #13, .T. ) ;
#39 = PERSON_AND_ORGANIZATION ( #151, #90 ) ;
#40 = COORDINATED_UNIVERSAL_TIME_OFFSET ( 1, 0, .AHEAD. ) ;
#41 = COORDINATED_UNIVERSAL_TIME_OFFSET ( 1, 0, .AHEAD. ) ;
#42 = EDGE_LOOP ( 'NONE', ( #184, #301, #198, #24 ) ) ;
#43 = ORIENTED_EDGE ( 'NONE', *, *, #34, .F. ) ;
#44 = ORIENTED_EDGE ( 'NONE', *, *, #140, .T. ) ;
#45 = FACE_OUTER_BOUND ( 'NONE', #305, .T. ) ;
#46 = CC_DESIGN_SECURITY_CLASSIFICATION ( #191, ( #113 ) ) ;
#47 = CARTESIAN_POINT ( 'NONE',  ( 8.000000000000000000, 9.797174393178825657E-16, 5.000000000000000000 ) ) ;
#48 = VERTEX_POINT ( 'NONE', #256 ) ;
#49 = CARTESIAN_POINT ( 'NONE',  ( -8.000000000000000000, 0.000000000000000000, 5.000000000000000000 ) ) ;
#50 = UNCERTAINTY_MEASURE_WITH_UNIT (LENGTH_MEASURE( 1.000000000000000082E-05 ), #176, 'distance_accuracy_value', 'NONE');
#51 = CC_DESIGN_PERSON_AND_ORGANIZATION_ASSIGNMENT ( #86, #245, ( #113 ) ) ;
#52 = CARTESIAN_POINT ( 'NONE',  ( 0.000000000000000000, 0.000000000000000000, 5.200000000000009948 ) ) ;
#53 = FACE_OUTER_BOUND ( 'NONE', #18, .T. ) ;
#54 = PLANE ( 'NONE',  #6 ) ;
#55 = CIRCLE ( 'NONE', #230, 8.000000000000000000 ) ;
#56 = DIRECTION ( 'NONE',  ( 1.000000000000000000, 0.000000000000000000, 0.000000000000000000 ) ) ;
#57 = ADVANCED_FACE ( 'NONE', ( #45 ), #88, .F. ) ;
#58 = VECTOR ( 'NONE', #11, 1000.000000000000000 ) ;
#59 =( NAMED_UNIT ( * ) SI_UNIT ( $, .STERADIAN. ) SOLID_ANGLE_UNIT ( ) );
#60 = DATE_AND_TIME ( #171, #101 ) ;
#61 = AXIS2_PLACEMENT_3D ( 'NONE', #89, #133, #181 ) ;
#62 = ORIENTED_EDGE ( 'NONE', *, *, #298, .F. ) ;
#63 = DIRECTION ( 'NONE',  ( 0.000000000000000000, 0.000000000000000000, 1.000000000000000000 ) ) ;
#64 = AXIS2_PLACEMENT_3D ( 'NONE', #266, #179, #268 ) ;
#65 = CARTESIAN_POINT ( 'NONE',  ( 0.000000000000000000, 0.000000000000000000, 5.000000000000000000 ) ) ;
#66 = EDGE_LOOP ( 'NONE', ( #286, #95, #36, #109 ) ) ;
#67 = ADVANCED_FACE ( 'NONE', ( #209 ), #185, .F. ) ;
#68 = ORIENTED_EDGE ( 'NONE', *, *, #38, .T. ) ;
#69 = AXIS2_PLACEMENT_3D ( 'NONE', #92, #119, #121 ) ;
#70 = CARTESIAN_POINT ( 'NONE',  ( 0.000000000000000000, 0.000000000000000000, 0.000000000000000000 ) ) ;
#71 = CARTESIAN_POINT ( 'NONE',  ( -8.000000000000000000, 0.000000000000000000, 0.000000000000000000 ) ) ;
#72 = CARTESIAN_POINT ( 'NONE',  ( 0.000000000000000000, 0.000000000000000000, 5.000000000000000000 ) ) ;
#73 = DESIGN_CONTEXT ( 'detailed design', #8, 'design' ) ;
#74 = DIRECTION ( 'NONE',  ( 0.000000000000000000, 0.000000000000000000, 1.000000000000000000 ) ) ;
#75 = CC_DESIGN_APPROVAL ( #175, ( #180 ) ) ;
#76 = DIRECTION ( 'NONE',  ( 1.000000000000000000, 0.000000000000000000, 0.000000000000000000 ) ) ;
#77 = EDGE_CURVE ( 'NONE', #148, #275, #307, .T. ) ;
#78 = CARTESIAN_POINT ( 'NONE',  ( 0.000000000000000000, 0.000000000000000000, 5.000000000000000000 ) ) ;
#79 = COORDINATED_UNIVERSAL_TIME_OFFSET ( 1, 0, .AHEAD. ) ;
#80 = ADVANCED_FACE ( 'NONE', ( #155 ), #253, .T. ) ;
#81 = VERTEX_POINT ( 'NONE', #279 ) ;
#82 = PERSON_AND_ORGANIZATION ( #151, #90 ) ;
#83 = ORIENTED_EDGE ( 'NONE', *, *, #231, .T. ) ;
#84 = ORIENTED_EDGE ( 'NONE', *, *, #116, .F. ) ;
#85 = CIRCLE ( 'NONE', #177, 5.500000000000000000 ) ;
#86 = PERSON_AND_ORGANIZATION ( #151, #90 ) ;
#87 = EDGE_CURVE ( 'NONE', #21, #227, #55, .T. ) ;
#88 = TOROIDAL_SURFACE ( 'NONE', #261, 5.699999999999999289, 0.2000000000000000111 ) ;
#89 = CARTESIAN_POINT ( 'NONE',  ( 0.000000000000000000, 0.000000000000000000, 5.000000000000000000 ) ) ;
#90 = ORGANIZATION ( 'NEURÈENÝ', 'NEURÈENÝ', '' ) ;
#91 = APPROVAL_ROLE ( '' ) ;
#92 = CARTESIAN_POINT ( 'NONE',  ( 0.000000000000000000, 0.000000000000000000, 205.0000000000000284 ) ) ;
#93 = EDGE_CURVE ( 'NONE', #21, #48, #254, .T. ) ;
#94 = EDGE_LOOP ( 'NONE', ( #223, #5 ) ) ;
#95 = ORIENTED_EDGE ( 'NONE', *, *, #93, .T. ) ;
#96 = AXIS2_PLACEMENT_3D ( 'NONE', #143, #128, #300 ) ;
#97 = ORIENTED_EDGE ( 'NONE', *, *, #4, .F. ) ;
#98 = CARTESIAN_POINT ( 'NONE',  ( 5.500000000000000000, 6.735557395310442023E-16, 205.0000000000000284 ) ) ;
#99 = CARTESIAN_POINT ( 'NONE',  ( 0.000000000000000000, 0.000000000000000000, 0.000000000000000000 ) ) ;
#100 = CARTESIAN_POINT ( 'NONE',  ( -5.500000000000000000, 0.000000000000000000, 5.200000000000009948 ) ) ;
#101 = LOCAL_TIME ( 14, 25, 14.00000000000000000, #297 ) ;
#102 = CALENDAR_DATE ( 2022, 7, 7 ) ;
#103 = ADVANCED_FACE ( 'NONE', ( #112 ), #1, .T. ) ;
#104 = LOCAL_TIME ( 14, 25, 14.00000000000000000, #183 ) ;
#105 = PERSON_AND_ORGANIZATION ( #151, #90 ) ;
#106 = ORIENTED_EDGE ( 'NONE', *, *, #197, .T. ) ;
#107 = PERSON_AND_ORGANIZATION ( #151, #90 ) ;
#108 = APPROVAL_PERSON_ORGANIZATION ( #126, #219, #91 ) ;
#109 = ORIENTED_EDGE ( 'NONE', *, *, #188, .F. ) ;
#110 = PRODUCT_RELATED_PRODUCT_CATEGORY ( 'detail', '', ( #178 ) ) ;
#111 = CARTESIAN_POINT ( 'NONE',  ( 5.699999999999999289, 0.000000000000000000, 5.000000000000005329 ) ) ;
#112 = FACE_OUTER_BOUND ( 'NONE', #270, .T. ) ;
#113 = PRODUCT_DEFINITION_FORMATION_WITH_SPECIFIED_SOURCE ( 'LIBOVOLNÝ', '', #178, .NOT_KNOWN. ) ;
#114 = EDGE_LOOP ( 'NONE', ( #43, #84 ) ) ;
#115 = DIRECTION ( 'NONE',  ( -0.000000000000000000, -0.000000000000000000, -1.000000000000000000 ) ) ;
#116 = EDGE_CURVE ( 'NONE', #48, #246, #290, .T. ) ;
#117 = DIRECTION ( 'NONE',  ( 1.000000000000000000, 0.000000000000000000, 0.000000000000000000 ) ) ;
#118 = CYLINDRICAL_SURFACE ( 'NONE', #32, 8.000000000000000000 ) ;
#119 = DIRECTION ( 'NONE',  ( 0.000000000000000000, 0.000000000000000000, 1.000000000000000000 ) ) ;
#120 = CC_DESIGN_PERSON_AND_ORGANIZATION_ASSIGNMENT ( #39, #14, ( #180 ) ) ;
#121 = DIRECTION ( 'NONE',  ( 1.000000000000000000, 0.000000000000000000, -0.000000000000000000 ) ) ;
#122 = DIRECTION ( 'NONE',  ( 1.000000000000000000, 0.000000000000000000, 0.000000000000000000 ) ) ;
#123 = APPLICATION_PROTOCOL_DEFINITION ( 'international standard', 'config_control_design', 1994, #8 ) ;
#124 = CIRCLE ( 'NONE', #251, 5.699999999999999289 ) ;
#125 = APPROVAL ( #153, 'NEURÈENÝ' ) ;
#126 = PERSON_AND_ORGANIZATION ( #151, #90 ) ;
#127 = APPROVAL_PERSON_ORGANIZATION ( #82, #175, #248 ) ;
#128 = DIRECTION ( 'NONE',  ( 1.224646799147353207E-16, 1.000000000000000000, -0.000000000000000000 ) ) ;
#129 = MANIFOLD_SOLID_BREP ( 'Zaoblit1', #269 ) ;
#130 = MECHANICAL_CONTEXT ( 'NONE', #304, 'mechanical' ) ;
#131 = CC_DESIGN_PERSON_AND_ORGANIZATION_ASSIGNMENT ( #105, #195, ( #191 ) ) ;
#132 = ORIENTED_EDGE ( 'NONE', *, *, #4, .T. ) ;
#133 = DIRECTION ( 'NONE',  ( -0.000000000000000000, -0.000000000000000000, -1.000000000000000000 ) ) ;
#134 = ADVANCED_FACE ( 'NONE', ( #53 ), #118, .T. ) ;
#135 = CARTESIAN_POINT ( 'NONE',  ( 0.000000000000000000, 0.000000000000000000, 5.200000000000009948 ) ) ;
#136 = VECTOR ( 'NONE', #22, 1000.000000000000000 ) ;
#137 = VERTEX_POINT ( 'NONE', #165 ) ;
#138 = DIRECTION ( 'NONE',  ( 0.000000000000000000, 0.000000000000000000, 1.000000000000000000 ) ) ;
#139 = DIRECTION ( 'NONE',  ( 1.000000000000000000, 0.000000000000000000, 0.000000000000000000 ) ) ;
#140 = EDGE_CURVE ( 'NONE', #275, #26, #241, .T. ) ;
#141 = CARTESIAN_POINT ( 'NONE',  ( -5.500000000000000000, 0.000000000000000000, 205.0000000000000284 ) ) ;
#142 = AXIS2_PLACEMENT_3D ( 'NONE', #240, #212, #117 ) ;
#143 = CARTESIAN_POINT ( 'NONE',  ( -5.699999999999999289, 6.980486755139912122E-16, 5.200000000000009948 ) ) ;
#144 = EDGE_CURVE ( 'NONE', #227, #21, #19, .T. ) ;
#145 = DIRECTION ( 'NONE',  ( 0.000000000000000000, 0.000000000000000000, 1.000000000000000000 ) ) ;
#146 = CARTESIAN_POINT ( 'NONE',  ( -8.000000000000000000, 0.000000000000000000, 5.000000000000000000 ) ) ;
#147 = DIRECTION ( 'NONE',  ( -0.000000000000000000, -0.000000000000000000, -1.000000000000000000 ) ) ;
#148 = VERTEX_POINT ( 'NONE', #100 ) ;
#149 = PERSON_AND_ORGANIZATION_ROLE ( 'design_owner' ) ;
#150 = APPROVAL_PERSON_ORGANIZATION ( #107, #125, #249 ) ;
#151 = PERSON ( 'NEURÈENÝ', 'NEURÈENÝ', 'NEURÈENÝ', ('NEURÈENÝ'), ('NEURÈENÝ'), ('NEURÈENÝ') ) ;
#152 = CC_DESIGN_PERSON_AND_ORGANIZATION_ASSIGNMENT ( #303, #169, ( #113 ) ) ;
#153 = APPROVAL_STATUS ( 'not_yet_approved' ) ;
#154 = APPROVAL_DATE_TIME ( #201, #125 ) ;
#155 = FACE_OUTER_BOUND ( 'NONE', #66, .T. ) ;
#156 = VECTOR ( 'NONE', #236, 1000.000000000000000 ) ;
#157 = DIRECTION ( 'NONE',  ( 1.000000000000000000, 0.000000000000000000, 0.000000000000000000 ) ) ;
#158 = DIRECTION ( 'NONE',  ( 1.000000000000000000, 0.000000000000000000, 0.000000000000000000 ) ) ;
#159 = ORIENTED_EDGE ( 'NONE', *, *, #197, .F. ) ;
#160 = ADVANCED_FACE ( 'NONE', ( #192 ), #190, .T. ) ;
#161 = DIRECTION ( 'NONE',  ( 1.000000000000000000, 0.000000000000000000, -0.000000000000000000 ) ) ;
#162 = LINE ( 'NONE', #141, #156 ) ;
#163 = CARTESIAN_POINT ( 'NONE',  ( 5.699999999999999289, 0.000000000000000000, 5.200000000000009948 ) ) ;
#164 = LOCAL_TIME ( 14, 25, 14.00000000000000000, #79 ) ;
#165 = CARTESIAN_POINT ( 'NONE',  ( -5.699999999999999289, 6.980486755139912122E-16, 5.000000000000005329 ) ) ;
#166 = DIRECTION ( 'NONE',  ( 0.000000000000000000, 0.000000000000000000, 1.000000000000000000 ) ) ;
#167 = CYLINDRICAL_SURFACE ( 'NONE', #220, 5.500000000000000000 ) ;
#168 =( GEOMETRIC_REPRESENTATION_CONTEXT ( 3 ) GLOBAL_UNCERTAINTY_ASSIGNED_CONTEXT ( ( #50 ) ) GLOBAL_UNIT_ASSIGNED_CONTEXT ( ( #176, #35, #59 ) ) REPRESENTATION_CONTEXT ( 'NONE', 'WORKASPACE' ) );
#169 = PERSON_AND_ORGANIZATION_ROLE ( 'creator' ) ;
#170 = EDGE_CURVE ( 'NONE', #273, #81, #271, .T. ) ;
#171 = CALENDAR_DATE ( 2022, 7, 7 ) ;
#172 = ORIENTED_EDGE ( 'NONE', *, *, #38, .F. ) ;
#173 = DATE_AND_TIME ( #272, #164 ) ;
#174 = EDGE_LOOP ( 'NONE', ( #62, #159, #44, #97 ) ) ;
#175 = APPROVAL ( #250, 'NEURÈENÝ' ) ;
#176 =( LENGTH_UNIT ( ) NAMED_UNIT ( * ) SI_UNIT ( .MILLI., .METRE. ) );
#177 = AXIS2_PLACEMENT_3D ( 'NONE', #216, #33, #76 ) ;
#178 = PRODUCT ( 'dd37', 'dd37', '', ( #130 ) ) ;
#179 = DIRECTION ( 'NONE',  ( 0.000000000000000000, 0.000000000000000000, 1.000000000000000000 ) ) ;
#180 = PRODUCT_DEFINITION ( 'NEZNÁMÝ', '', #113, #73 ) ;
#181 = DIRECTION ( 'NONE',  ( -1.000000000000000000, 0.000000000000000000, 0.000000000000000000 ) ) ;
#182 = ORIENTED_EDGE ( 'NONE', *, *, #34, .T. ) ;
#183 = COORDINATED_UNIVERSAL_TIME_OFFSET ( 1, 0, .AHEAD. ) ;
#184 = ORIENTED_EDGE ( 'NONE', *, *, #292, .F. ) ;
#185 = PLANE ( 'NONE',  #200 ) ;
#186 = DIRECTION ( 'NONE',  ( -0.000000000000000000, -0.000000000000000000, -1.000000000000000000 ) ) ;
#187 = DIRECTION ( 'NONE',  ( 0.000000000000000000, -1.000000000000000000, 0.000000000000000000 ) ) ;
#188 = EDGE_CURVE ( 'NONE', #227, #246, #260, .T. ) ;
#189 = AXIS2_PLACEMENT_3D ( 'NONE', #135, #259, #139 ) ;
#190 = CYLINDRICAL_SURFACE ( 'NONE', #214, 5.500000000000000000 ) ;
#191 = SECURITY_CLASSIFICATION ( '', '', #194 ) ;
#192 = FACE_OUTER_BOUND ( 'NONE', #42, .T. ) ;
#193 = FACE_OUTER_BOUND ( 'NONE', #202, .T. ) ;
#194 = SECURITY_CLASSIFICATION_LEVEL ( 'unclassified' ) ;
#195 = PERSON_AND_ORGANIZATION_ROLE ( 'classification_officer' ) ;
#196 = ORIENTED_EDGE ( 'NONE', *, *, #77, .F. ) ;
#197 = EDGE_CURVE ( 'NONE', #275, #148, #85, .T. ) ;
#198 = ORIENTED_EDGE ( 'NONE', *, *, #255, .T. ) ;
#199 = APPLICATION_PROTOCOL_DEFINITION ( 'international standard', 'config_control_design', 1994, #304 ) ;
#200 = AXIS2_PLACEMENT_3D ( 'NONE', #203, #306, #161 ) ;
#201 = DATE_AND_TIME ( #17, #293 ) ;
#202 = EDGE_LOOP ( 'NONE', ( #257, #281, #106, #2 ) ) ;
#203 = CARTESIAN_POINT ( 'NONE',  ( 0.000000000000000000, 0.000000000000000000, 0.000000000000000000 ) ) ;
#204 = DIRECTION ( 'NONE',  ( 0.000000000000000000, 0.000000000000000000, 1.000000000000000000 ) ) ;
#205 = CIRCLE ( 'NONE', #142, 5.500000000000000000 ) ;
#206 = ADVANCED_BREP_SHAPE_REPRESENTATION ( 'dd37', ( #129, #64 ), #168 ) ;
#207 = CARTESIAN_POINT ( 'NONE',  ( 0.000000000000000000, 0.000000000000000000, 5.000000000000000000 ) ) ;
#208 = CC_DESIGN_DATE_AND_TIME_ASSIGNMENT ( #60, #37, ( #191 ) ) ;
#209 = FACE_OUTER_BOUND ( 'NONE', #114, .T. ) ;
#210 = CARTESIAN_POINT ( 'NONE',  ( 0.000000000000000000, 0.000000000000000000, 5.200000000000009948 ) ) ;
#211 = DIRECTION ( 'NONE',  ( 1.000000000000000000, 0.000000000000000000, -0.000000000000000000 ) ) ;
#212 = DIRECTION ( 'NONE',  ( 0.000000000000000000, 0.000000000000000000, 1.000000000000000000 ) ) ;
#213 = DIRECTION ( 'NONE',  ( 0.000000000000000000, 0.000000000000000000, -1.000000000000000000 ) ) ;
#214 = AXIS2_PLACEMENT_3D ( 'NONE', #263, #186, #215 ) ;
#215 = DIRECTION ( 'NONE',  ( -1.000000000000000000, 0.000000000000000000, 0.000000000000000000 ) ) ;
#216 = CARTESIAN_POINT ( 'NONE',  ( 0.000000000000000000, 0.000000000000000000, 5.200000000000009948 ) ) ;
#217 = DATE_TIME_ROLE ( 'creation_date' ) ;
#218 = AXIS2_PLACEMENT_3D ( 'NONE', #234, #25, #158 ) ;
#219 = APPROVAL ( #221, 'NEURÈENÝ' ) ;
#220 = AXIS2_PLACEMENT_3D ( 'NONE', #265, #12, #288 ) ;
#221 = APPROVAL_STATUS ( 'not_yet_approved' ) ;
#222 = APPROVAL_DATE_TIME ( #173, #175 ) ;
#223 = ORIENTED_EDGE ( 'NONE', *, *, #144, .T. ) ;
#224 = CIRCLE ( 'NONE', #96, 0.1999999999999996503 ) ;
#225 = ORIENTED_EDGE ( 'NONE', *, *, #93, .F. ) ;
#226 = ADVANCED_FACE ( 'NONE', ( #264, #242 ), #54, .T. ) ;
#227 = VERTEX_POINT ( 'NONE', #146 ) ;
#228 = CALENDAR_DATE ( 2022, 7, 7 ) ;
#229 = CARTESIAN_POINT ( 'NONE',  ( 8.000000000000000000, 9.797174393178825657E-16, 5.000000000000000000 ) ) ;
#230 = AXIS2_PLACEMENT_3D ( 'NONE', #65, #204, #157 ) ;
#231 = EDGE_CURVE ( 'NONE', #81, #273, #205, .T. ) ;
#232 = ORIENTED_EDGE ( 'NONE', *, *, #188, .T. ) ;
#233 = AXIS2_PLACEMENT_3D ( 'NONE', #294, #145, #239 ) ;
#234 = CARTESIAN_POINT ( 'NONE',  ( 0.000000000000000000, 0.000000000000000000, 5.000000000000000000 ) ) ;
#235 = DIRECTION ( 'NONE',  ( 1.000000000000000000, 0.000000000000000000, 0.000000000000000000 ) ) ;
#236 = DIRECTION ( 'NONE',  ( -0.000000000000000000, -0.000000000000000000, -1.000000000000000000 ) ) ;
#237 = TOROIDAL_SURFACE ( 'NONE', #258, 5.699999999999999289, 0.2000000000000000111 ) ;
#238 = ADVANCED_FACE ( 'NONE', ( #31 ), #237, .F. ) ;
#239 = DIRECTION ( 'NONE',  ( 1.000000000000000000, 0.000000000000000000, 0.000000000000000000 ) ) ;
#240 = CARTESIAN_POINT ( 'NONE',  ( 0.000000000000000000, 0.000000000000000000, 205.0000000000000284 ) ) ;
#241 = CIRCLE ( 'NONE', #287, 0.1999999999999996503 ) ;
#242 = FACE_OUTER_BOUND ( 'NONE', #94, .T. ) ;
#243 = ORIENTED_EDGE ( 'NONE', *, *, #144, .F. ) ;
#244 = ADVANCED_FACE ( 'NONE', ( #193 ), #167, .T. ) ;
#245 = PERSON_AND_ORGANIZATION_ROLE ( 'design_supplier' ) ;
#246 = VERTEX_POINT ( 'NONE', #71 ) ;
#247 = LOCAL_TIME ( 14, 25, 14.00000000000000000, #41 ) ;
#248 = APPROVAL_ROLE ( '' ) ;
#249 = APPROVAL_ROLE ( '' ) ;
#250 = APPROVAL_STATUS ( 'not_yet_approved' ) ;
#251 = AXIS2_PLACEMENT_3D ( 'NONE', #207, #115, #235 ) ;
#252 = SHAPE_DEFINITION_REPRESENTATION ( #16, #206 ) ;
#253 = CYLINDRICAL_SURFACE ( 'NONE', #61, 8.000000000000000000 ) ;
#254 = LINE ( 'NONE', #229, #136 ) ;
#255 = EDGE_CURVE ( 'NONE', #273, #148, #162, .T. ) ;
#256 = CARTESIAN_POINT ( 'NONE',  ( 8.000000000000000000, 9.797174393178825657E-16, 0.000000000000000000 ) ) ;
#257 = ORIENTED_EDGE ( 'NONE', *, *, #231, .F. ) ;
#258 = AXIS2_PLACEMENT_3D ( 'NONE', #52, #295, #56 ) ;
#259 = DIRECTION ( 'NONE',  ( 0.000000000000000000, 0.000000000000000000, 1.000000000000000000 ) ) ;
#260 = LINE ( 'NONE', #49, #58 ) ;
#261 = AXIS2_PLACEMENT_3D ( 'NONE', #210, #63, #3 ) ;
#262 = LINE ( 'NONE', #98, #28 ) ;
#263 = CARTESIAN_POINT ( 'NONE',  ( 0.000000000000000000, 0.000000000000000000, 205.0000000000000284 ) ) ;
#264 = FACE_BOUND ( 'NONE', #299, .T. ) ;
#265 = CARTESIAN_POINT ( 'NONE',  ( 0.000000000000000000, 0.000000000000000000, 205.0000000000000284 ) ) ;
#266 = CARTESIAN_POINT ( 'NONE',  ( 0.000000000000000000, 0.000000000000000000, 0.000000000000000000 ) ) ;
#267 = ORIENTED_EDGE ( 'NONE', *, *, #140, .F. ) ;
#268 = DIRECTION ( 'NONE',  ( 1.000000000000000000, 0.000000000000000000, 0.000000000000000000 ) ) ;
#269 = CLOSED_SHELL ( 'NONE', ( #57, #244, #80, #134, #226, #67, #160, #103, #238 ) ) ;
#270 = EDGE_LOOP ( 'NONE', ( #277, #83 ) ) ;
#271 = CIRCLE ( 'NONE', #233, 5.500000000000000000 ) ;
#272 = CALENDAR_DATE ( 2022, 7, 7 ) ;
#273 = VERTEX_POINT ( 'NONE', #9 ) ;
#274 = PERSON_AND_ORGANIZATION ( #151, #90 ) ;
#275 = VERTEX_POINT ( 'NONE', #7 ) ;
#276 = APPROVAL_DATE_TIME ( #282, #219 ) ;
#277 = ORIENTED_EDGE ( 'NONE', *, *, #170, .T. ) ;
#278 = CIRCLE ( 'NONE', #302, 8.000000000000000000 ) ;
#279 = CARTESIAN_POINT ( 'NONE',  ( 5.500000000000000000, 6.735557395310442023E-16, 205.0000000000000284 ) ) ;
#280 = CC_DESIGN_DATE_AND_TIME_ASSIGNMENT ( #15, #217, ( #180 ) ) ;
#281 = ORIENTED_EDGE ( 'NONE', *, *, #292, .T. ) ;
#282 = DATE_AND_TIME ( #228, #104 ) ;
#283 = DIRECTION ( 'NONE',  ( 1.000000000000000000, 0.000000000000000000, 0.000000000000000000 ) ) ;
#284 = AXIS2_PLACEMENT_3D ( 'NONE', #99, #74, #122 ) ;
#285 = CC_DESIGN_APPROVAL ( #219, ( #191 ) ) ;
#286 = ORIENTED_EDGE ( 'NONE', *, *, #87, .F. ) ;
#287 = AXIS2_PLACEMENT_3D ( 'NONE', #163, #187, #213 ) ;
#288 = DIRECTION ( 'NONE',  ( -1.000000000000000000, 0.000000000000000000, 0.000000000000000000 ) ) ;
#289 = DIRECTION ( 'NONE',  ( -0.000000000000000000, -0.000000000000000000, -1.000000000000000000 ) ) ;
#290 = CIRCLE ( 'NONE', #284, 8.000000000000000000 ) ;
#291 = CARTESIAN_POINT ( 'NONE',  ( 0.000000000000000000, 0.000000000000000000, 5.000000000000000000 ) ) ;
#292 = EDGE_CURVE ( 'NONE', #81, #275, #262, .T. ) ;
#293 = LOCAL_TIME ( 14, 25, 14.00000000000000000, #40 ) ;
#294 = CARTESIAN_POINT ( 'NONE',  ( 0.000000000000000000, 0.000000000000000000, 205.0000000000000284 ) ) ;
#295 = DIRECTION ( 'NONE',  ( 0.000000000000000000, 0.000000000000000000, 1.000000000000000000 ) ) ;
#296 = AXIS2_PLACEMENT_3D ( 'NONE', #291, #166, #10 ) ;
#297 = COORDINATED_UNIVERSAL_TIME_OFFSET ( 1, 0, .AHEAD. ) ;
#298 = EDGE_CURVE ( 'NONE', #148, #137, #224, .T. ) ;
#299 = EDGE_LOOP ( 'NONE', ( #68, #132 ) ) ;
#300 = DIRECTION ( 'NONE',  ( -1.000000000000000000, 1.224646799147353454E-16, 0.000000000000000000 ) ) ;
#301 = ORIENTED_EDGE ( 'NONE', *, *, #170, .F. ) ;
#302 = AXIS2_PLACEMENT_3D ( 'NONE', #70, #138, #283 ) ;
#303 = PERSON_AND_ORGANIZATION ( #151, #90 ) ;
#304 = APPLICATION_CONTEXT ( 'configuration controlled 3d designs of mechanical parts and assemblies' ) ;
#305 = EDGE_LOOP ( 'NONE', ( #196, #20, #172, #267 ) ) ;
#306 = DIRECTION ( 'NONE',  ( 0.000000000000000000, 0.000000000000000000, 1.000000000000000000 ) ) ;
#307 = CIRCLE ( 'NONE', #189, 5.500000000000000000 ) ;
ENDSEC;
END-ISO-10303-21;
