ISO-10303-21;
HEADER;
FILE_DESCRIPTION (( 'STEP AP203' ),
    '1' );
FILE_NAME ('e445.STEP',
    '2022-07-07T12:32:28',
    ( '' ),
    ( '' ),
    'SwSTEP 2.0',
    'SolidWorks 2019',
    '' );
FILE_SCHEMA (( 'CONFIG_CONTROL_DESIGN' ));
ENDSEC;

DATA;
#1 = EDGE_CURVE ( 'NONE', #132, #109, #34, .T. ) ;
#2 = DIRECTION ( 'NONE',  ( 0.000000000000000000, 0.000000000000000000, 1.000000000000000000 ) ) ;
#3 = CARTESIAN_POINT ( 'NONE',  ( -7.000000000000000000, 0.000000000000000000, 5.000000000000000000 ) ) ;
#4 = AXIS2_PLACEMENT_3D ( 'NONE', #291, #2, #247 ) ;
#5 = DIRECTION ( 'NONE',  ( -0.000000000000000000, -0.000000000000000000, -1.000000000000000000 ) ) ;
#6 = DIRECTION ( 'NONE',  ( -0.000000000000000000, -0.000000000000000000, -1.000000000000000000 ) ) ;
#7 = EDGE_CURVE ( 'NONE', #252, #64, #238, .T. ) ;
#8 = CARTESIAN_POINT ( 'NONE',  ( 0.000000000000000000, 0.000000000000000000, 255.0000000000000000 ) ) ;
#9 = CIRCLE ( 'NONE', #223, 7.000000000000000000 ) ;
#10 = AXIS2_PLACEMENT_3D ( 'NONE', #259, #229, #50 ) ;
#11 = EDGE_CURVE ( 'NONE', #275, #66, #287, .T. ) ;
#12 = VERTEX_POINT ( 'NONE', #142 ) ;
#13 = SECURITY_CLASSIFICATION ( '', '', #119 ) ;
#14 = PERSON ( 'NEURÈENÝ', 'NEURÈENÝ', 'NEURÈENÝ', ('NEURÈENÝ'), ('NEURÈENÝ'), ('NEURÈENÝ') ) ;
#15 = ORIENTED_EDGE ( 'NONE', *, *, #220, .T. ) ;
#16 = CARTESIAN_POINT ( 'NONE',  ( 0.000000000000000000, 0.000000000000000000, 0.000000000000000000 ) ) ;
#17 = ORIENTED_EDGE ( 'NONE', *, *, #166, .T. ) ;
#18 = CLOSED_SHELL ( 'NONE', ( #140, #23, #110, #128, #271, #239, #175, #294, #60 ) ) ;
#19 = APPROVAL_ROLE ( '' ) ;
#20 = CARTESIAN_POINT ( 'NONE',  ( 0.000000000000000000, 0.000000000000000000, 255.0000000000000000 ) ) ;
#21 = DATE_AND_TIME ( #234, #148 ) ;
#22 = CARTESIAN_POINT ( 'NONE',  ( 0.000000000000000000, 0.000000000000000000, 5.000000000000000000 ) ) ;
#23 = ADVANCED_FACE ( 'NONE', ( #186 ), #305, .T. ) ;
#24 = CALENDAR_DATE ( 2022, 7, 7 ) ;
#25 = DIRECTION ( 'NONE',  ( 0.000000000000000000, 0.000000000000000000, -1.000000000000000000 ) ) ;
#26 = APPROVAL_DATE_TIME ( #141, #260 ) ;
#27 = ORIENTED_EDGE ( 'NONE', *, *, #45, .F. ) ;
#28 = AXIS2_PLACEMENT_3D ( 'NONE', #149, #99, #194 ) ;
#29 = COORDINATED_UNIVERSAL_TIME_OFFSET ( 1, 0, .AHEAD. ) ;
#30 = ORIENTED_EDGE ( 'NONE', *, *, #1, .F. ) ;
#31 = CARTESIAN_POINT ( 'NONE',  ( -4.299999999999998934, 5.265981236333617484E-16, 5.000000000000005329 ) ) ;
#32 = CC_DESIGN_SECURITY_CLASSIFICATION ( #13, ( #61 ) ) ;
#33 = DIRECTION ( 'NONE',  ( 0.000000000000000000, 0.000000000000000000, 1.000000000000000000 ) ) ;
#34 = CIRCLE ( 'NONE', #293, 0.1999999999999996503 ) ;
#35 = FACE_OUTER_BOUND ( 'NONE', #253, .T. ) ;
#36 = DIRECTION ( 'NONE',  ( 0.000000000000000000, 0.000000000000000000, 1.000000000000000000 ) ) ;
#37 = ORIENTED_EDGE ( 'NONE', *, *, #78, .F. ) ;
#38 = DESIGN_CONTEXT ( 'detailed design', #51, 'design' ) ;
#39 = ORIENTED_EDGE ( 'NONE', *, *, #216, .T. ) ;
#40 = AXIS2_PLACEMENT_3D ( 'NONE', #49, #278, #233 ) ;
#41 = ORIENTED_EDGE ( 'NONE', *, *, #98, .T. ) ;
#42 = EDGE_CURVE ( 'NONE', #109, #303, #214, .T. ) ;
#43 = ORIENTED_EDGE ( 'NONE', *, *, #117, .F. ) ;
#44 = LINE ( 'NONE', #134, #62 ) ;
#45 = EDGE_CURVE ( 'NONE', #132, #66, #196, .T. ) ;
#46 = CALENDAR_DATE ( 2022, 7, 7 ) ;
#47 = ORIENTED_EDGE ( 'NONE', *, *, #42, .F. ) ;
#48 = APPROVAL_DATE_TIME ( #281, #204 ) ;
#49 = CARTESIAN_POINT ( 'NONE',  ( 0.000000000000000000, 0.000000000000000000, 5.000000000000000000 ) ) ;
#50 = DIRECTION ( 'NONE',  ( -1.000000000000000000, 0.000000000000000000, 0.000000000000000000 ) ) ;
#51 = APPLICATION_CONTEXT ( 'configuration controlled 3d designs of mechanical parts and assemblies' ) ;
#52 = APPROVAL_ROLE ( '' ) ;
#53 = DIRECTION ( 'NONE',  ( 0.000000000000000000, -1.000000000000000000, 0.000000000000000000 ) ) ;
#54 = LINE ( 'NONE', #188, #230 ) ;
#55 = PRODUCT_RELATED_PRODUCT_CATEGORY ( 'detail', '', ( #197 ) ) ;
#56 = FACE_OUTER_BOUND ( 'NONE', #116, .T. ) ;
#57 = AXIS2_PLACEMENT_3D ( 'NONE', #88, #69, #256 ) ;
#58 = PLANE ( 'NONE',  #263 ) ;
#59 = CARTESIAN_POINT ( 'NONE',  ( 0.000000000000000000, 0.000000000000000000, 0.000000000000000000 ) ) ;
#60 = ADVANCED_FACE ( 'NONE', ( #138 ), #189, .F. ) ;
#61 = PRODUCT_DEFINITION_FORMATION_WITH_SPECIFIED_SOURCE ( 'LIBOVOLNÝ', '', #197, .NOT_KNOWN. ) ;
#62 = VECTOR ( 'NONE', #202, 1000.000000000000000 ) ;
#63 = ORIENTED_EDGE ( 'NONE', *, *, #11, .T. ) ;
#64 = VERTEX_POINT ( 'NONE', #285 ) ;
#65 = APPLICATION_CONTEXT ( 'configuration controlled 3d designs of mechanical parts and assemblies' ) ;
#66 = VERTEX_POINT ( 'NONE', #237 ) ;
#67 = ADVANCED_BREP_SHAPE_REPRESENTATION ( 'e445', ( #184, #213 ), #94 ) ;
#68 = PERSON_AND_ORGANIZATION_ROLE ( 'classification_officer' ) ;
#69 = DIRECTION ( 'NONE',  ( 0.000000000000000000, 0.000000000000000000, 1.000000000000000000 ) ) ;
#70 = DIRECTION ( 'NONE',  ( 1.000000000000000000, 0.000000000000000000, 0.000000000000000000 ) ) ;
#71 = DIRECTION ( 'NONE',  ( -0.000000000000000000, -0.000000000000000000, -1.000000000000000000 ) ) ;
#72 = DIRECTION ( 'NONE',  ( 1.000000000000000000, 0.000000000000000000, 0.000000000000000000 ) ) ;
#73 = COORDINATED_UNIVERSAL_TIME_OFFSET ( 1, 0, .AHEAD. ) ;
#74 = FACE_OUTER_BOUND ( 'NONE', #307, .T. ) ;
#75 = CARTESIAN_POINT ( 'NONE',  ( 0.000000000000000000, 0.000000000000000000, 5.000000000000000000 ) ) ;
#76 = DIRECTION ( 'NONE',  ( 1.000000000000000000, 0.000000000000000000, -0.000000000000000000 ) ) ;
#77 = DIRECTION ( 'NONE',  ( 1.000000000000000000, 0.000000000000000000, -0.000000000000000000 ) ) ;
#78 = EDGE_CURVE ( 'NONE', #303, #109, #157, .T. ) ;
#79 = FACE_OUTER_BOUND ( 'NONE', #209, .T. ) ;
#80 = DIRECTION ( 'NONE',  ( -0.000000000000000000, -0.000000000000000000, -1.000000000000000000 ) ) ;
#81 = VECTOR ( 'NONE', #5, 1000.000000000000000 ) ;
#82 = ORIENTED_EDGE ( 'NONE', *, *, #117, .T. ) ;
#83 = AXIS2_PLACEMENT_3D ( 'NONE', #179, #71, #257 ) ;
#84 = AXIS2_PLACEMENT_3D ( 'NONE', #100, #192, #76 ) ;
#85 = APPROVAL_STATUS ( 'not_yet_approved' ) ;
#86 = DIRECTION ( 'NONE',  ( 1.000000000000000000, 0.000000000000000000, 0.000000000000000000 ) ) ;
#87 = ORIENTED_EDGE ( 'NONE', *, *, #298, .T. ) ;
#88 = CARTESIAN_POINT ( 'NONE',  ( 0.000000000000000000, 0.000000000000000000, 5.200000000000009948 ) ) ;
#89 = AXIS2_PLACEMENT_3D ( 'NONE', #8, #33, #268 ) ;
#90 = CARTESIAN_POINT ( 'NONE',  ( 4.299999999999998934, 0.000000000000000000, 5.000000000000005329 ) ) ;
#91 = APPROVAL ( #240, 'NEURÈENÝ' ) ;
#92 = VERTEX_POINT ( 'NONE', #235 ) ;
#93 = CARTESIAN_POINT ( 'NONE',  ( 7.000000000000000000, 8.572527594031473190E-16, 0.000000000000000000 ) ) ;
#94 =( GEOMETRIC_REPRESENTATION_CONTEXT ( 3 ) GLOBAL_UNCERTAINTY_ASSIGNED_CONTEXT ( ( #172 ) ) GLOBAL_UNIT_ASSIGNED_CONTEXT ( ( #147, #103, #104 ) ) REPRESENTATION_CONTEXT ( 'NONE', 'WORKASPACE' ) );
#95 = AXIS2_PLACEMENT_3D ( 'NONE', #206, #241, #208 ) ;
#96 = DIRECTION ( 'NONE',  ( 1.000000000000000000, 0.000000000000000000, 0.000000000000000000 ) ) ;
#97 = CC_DESIGN_APPROVAL ( #260, ( #61 ) ) ;
#98 = EDGE_CURVE ( 'NONE', #12, #132, #44, .T. ) ;
#99 = DIRECTION ( 'NONE',  ( 0.000000000000000000, 0.000000000000000000, 1.000000000000000000 ) ) ;
#100 = CARTESIAN_POINT ( 'NONE',  ( 0.000000000000000000, 0.000000000000000000, 5.000000000000000000 ) ) ;
#101 = LINE ( 'NONE', #3, #81 ) ;
#102 = AXIS2_PLACEMENT_3D ( 'NONE', #22, #183, #72 ) ;
#103 =( NAMED_UNIT ( * ) PLANE_ANGLE_UNIT ( ) SI_UNIT ( $, .RADIAN. ) );
#104 =( NAMED_UNIT ( * ) SI_UNIT ( $, .STERADIAN. ) SOLID_ANGLE_UNIT ( ) );
#105 = ORIENTED_EDGE ( 'NONE', *, *, #1, .T. ) ;
#106 = AXIS2_PLACEMENT_3D ( 'NONE', #295, #80, #245 ) ;
#107 = CC_DESIGN_DATE_AND_TIME_ASSIGNMENT ( #185, #284, ( #13 ) ) ;
#108 = ORIENTED_EDGE ( 'NONE', *, *, #122, .T. ) ;
#109 = VERTEX_POINT ( 'NONE', #90 ) ;
#110 = ADVANCED_FACE ( 'NONE', ( #74 ), #163, .T. ) ;
#111 = PERSON_AND_ORGANIZATION ( #14, #280 ) ;
#112 = DIRECTION ( 'NONE',  ( 0.000000000000000000, 0.000000000000000000, 1.000000000000000000 ) ) ;
#113 = DATE_TIME_ROLE ( 'creation_date' ) ;
#114 = EDGE_LOOP ( 'NONE', ( #156, #159, #39, #158 ) ) ;
#115 = PERSON_AND_ORGANIZATION_ROLE ( 'creator' ) ;
#116 = EDGE_LOOP ( 'NONE', ( #198, #43, #63, #15 ) ) ;
#117 = EDGE_CURVE ( 'NONE', #275, #12, #276, .T. ) ;
#118 = AXIS2_PLACEMENT_3D ( 'NONE', #75, #282, #86 ) ;
#119 = SECURITY_CLASSIFICATION_LEVEL ( 'unclassified' ) ;
#120 = ORIENTED_EDGE ( 'NONE', *, *, #244, .T. ) ;
#121 = DIRECTION ( 'NONE',  ( 0.000000000000000000, 0.000000000000000000, 1.000000000000000000 ) ) ;
#122 = EDGE_CURVE ( 'NONE', #12, #275, #250, .T. ) ;
#123 = FACE_OUTER_BOUND ( 'NONE', #114, .T. ) ;
#124 = CARTESIAN_POINT ( 'NONE',  ( 4.099999999999999645, 5.021051876504147385E-16, 5.200000000000009948 ) ) ;
#125 = CARTESIAN_POINT ( 'NONE',  ( 0.000000000000000000, 0.000000000000000000, 5.200000000000009948 ) ) ;
#126 = DIRECTION ( 'NONE',  ( 1.000000000000000000, 0.000000000000000000, 0.000000000000000000 ) ) ;
#127 = LOCAL_TIME ( 14, 32, 28.00000000000000000, #302 ) ;
#128 = ADVANCED_FACE ( 'NONE', ( #123 ), #174, .T. ) ;
#129 = ORIENTED_EDGE ( 'NONE', *, *, #298, .F. ) ;
#130 = ORIENTED_EDGE ( 'NONE', *, *, #166, .F. ) ;
#131 = APPLICATION_PROTOCOL_DEFINITION ( 'international standard', 'config_control_design', 1994, #51 ) ;
#132 = VERTEX_POINT ( 'NONE', #124 ) ;
#133 = MECHANICAL_CONTEXT ( 'NONE', #65, 'mechanical' ) ;
#134 = CARTESIAN_POINT ( 'NONE',  ( 4.099999999999999645, 5.021051876504147385E-16, 255.0000000000000000 ) ) ;
#135 = CIRCLE ( 'NONE', #4, 7.000000000000000000 ) ;
#136 = AXIS2_PLACEMENT_3D ( 'NONE', #173, #243, #269 ) ;
#137 = PERSON_AND_ORGANIZATION ( #14, #280 ) ;
#138 = FACE_OUTER_BOUND ( 'NONE', #300, .T. ) ;
#139 = APPROVAL_STATUS ( 'not_yet_approved' ) ;
#140 = ADVANCED_FACE ( 'NONE', ( #212 ), #143, .F. ) ;
#141 = DATE_AND_TIME ( #24, #127 ) ;
#142 = CARTESIAN_POINT ( 'NONE',  ( 4.099999999999999645, 5.021051876504147385E-16, 255.0000000000000000 ) ) ;
#143 = TOROIDAL_SURFACE ( 'NONE', #283, 4.299999999999998934, 0.2000000000000000111 ) ;
#144 = PERSON_AND_ORGANIZATION ( #14, #280 ) ;
#145 = ORIENTED_EDGE ( 'NONE', *, *, #78, .T. ) ;
#146 = PLANE ( 'NONE',  #84 ) ;
#147 =( LENGTH_UNIT ( ) NAMED_UNIT ( * ) SI_UNIT ( .MILLI., .METRE. ) );
#148 = LOCAL_TIME ( 14, 32, 28.00000000000000000, #73 ) ;
#149 = CARTESIAN_POINT ( 'NONE',  ( 0.000000000000000000, 0.000000000000000000, 5.200000000000009948 ) ) ;
#150 = CARTESIAN_POINT ( 'NONE',  ( 0.000000000000000000, 0.000000000000000000, 0.000000000000000000 ) ) ;
#151 = CC_DESIGN_PERSON_AND_ORGANIZATION_ASSIGNMENT ( #306, #68, ( #13 ) ) ;
#152 = DIRECTION ( 'NONE',  ( 1.224646799147353207E-16, 1.000000000000000000, -0.000000000000000000 ) ) ;
#153 = APPROVAL_PERSON_ORGANIZATION ( #299, #204, #19 ) ;
#154 = CC_DESIGN_APPROVAL ( #91, ( #13 ) ) ;
#155 = ORIENTED_EDGE ( 'NONE', *, *, #220, .F. ) ;
#156 = ORIENTED_EDGE ( 'NONE', *, *, #244, .F. ) ;
#157 = CIRCLE ( 'NONE', #102, 4.299999999999998934 ) ;
#158 = ORIENTED_EDGE ( 'NONE', *, *, #266, .T. ) ;
#159 = ORIENTED_EDGE ( 'NONE', *, *, #7, .F. ) ;
#160 = APPROVAL_PERSON_ORGANIZATION ( #144, #91, #52 ) ;
#161 = CC_DESIGN_PERSON_AND_ORGANIZATION_ASSIGNMENT ( #137, #232, ( #254 ) ) ;
#162 = EDGE_LOOP ( 'NONE', ( #221, #145 ) ) ;
#163 = CYLINDRICAL_SURFACE ( 'NONE', #10, 7.000000000000000000 ) ;
#164 = CALENDAR_DATE ( 2022, 7, 7 ) ;
#165 = CARTESIAN_POINT ( 'NONE',  ( 4.299999999999998934, 0.000000000000000000, 5.200000000000009948 ) ) ;
#166 = EDGE_CURVE ( 'NONE', #222, #92, #9, .T. ) ;
#167 = CC_DESIGN_APPROVAL ( #204, ( #254 ) ) ;
#168 = PLANE ( 'NONE',  #176 ) ;
#169 = DIRECTION ( 'NONE',  ( -0.000000000000000000, -0.000000000000000000, -1.000000000000000000 ) ) ;
#170 = DIRECTION ( 'NONE',  ( 1.000000000000000000, 0.000000000000000000, 0.000000000000000000 ) ) ;
#171 = CIRCLE ( 'NONE', #272, 0.1999999999999996503 ) ;
#172 = UNCERTAINTY_MEASURE_WITH_UNIT (LENGTH_MEASURE( 1.000000000000000082E-05 ), #147, 'distance_accuracy_value', 'NONE');
#173 = CARTESIAN_POINT ( 'NONE',  ( 0.000000000000000000, 0.000000000000000000, 5.000000000000000000 ) ) ;
#174 = CYLINDRICAL_SURFACE ( 'NONE', #106, 7.000000000000000000 ) ;
#175 = ADVANCED_FACE ( 'NONE', ( #56 ), #218, .T. ) ;
#176 = AXIS2_PLACEMENT_3D ( 'NONE', #265, #248, #77 ) ;
#177 = ORIENTED_EDGE ( 'NONE', *, *, #181, .T. ) ;
#178 = AXIS2_PLACEMENT_3D ( 'NONE', #267, #169, #191 ) ;
#179 = CARTESIAN_POINT ( 'NONE',  ( 0.000000000000000000, 0.000000000000000000, 255.0000000000000000 ) ) ;
#180 = ORIENTED_EDGE ( 'NONE', *, *, #122, .F. ) ;
#181 = EDGE_CURVE ( 'NONE', #66, #303, #171, .T. ) ;
#182 = COORDINATED_UNIVERSAL_TIME_OFFSET ( 1, 0, .AHEAD. ) ;
#183 = DIRECTION ( 'NONE',  ( -0.000000000000000000, -0.000000000000000000, -1.000000000000000000 ) ) ;
#184 = MANIFOLD_SOLID_BREP ( 'Zaoblit1', #18 ) ;
#185 = DATE_AND_TIME ( #255, #228 ) ;
#186 = FACE_OUTER_BOUND ( 'NONE', #225, .T. ) ;
#187 = CARTESIAN_POINT ( 'NONE',  ( -4.099999999999999645, 0.000000000000000000, 255.0000000000000000 ) ) ;
#188 = CARTESIAN_POINT ( 'NONE',  ( 7.000000000000000000, 8.572527594031473190E-16, 5.000000000000000000 ) ) ;
#189 = TOROIDAL_SURFACE ( 'NONE', #57, 4.299999999999998934, 0.2000000000000000111 ) ;
#190 = DIRECTION ( 'NONE',  ( 1.000000000000000000, 0.000000000000000000, -0.000000000000000000 ) ) ;
#191 = DIRECTION ( 'NONE',  ( -1.000000000000000000, 0.000000000000000000, 0.000000000000000000 ) ) ;
#192 = DIRECTION ( 'NONE',  ( 0.000000000000000000, 0.000000000000000000, 1.000000000000000000 ) ) ;
#193 = CIRCLE ( 'NONE', #28, 4.099999999999999645 ) ;
#194 = DIRECTION ( 'NONE',  ( 1.000000000000000000, 0.000000000000000000, 0.000000000000000000 ) ) ;
#195 = EDGE_LOOP ( 'NONE', ( #155, #177, #47, #30 ) ) ;
#196 = CIRCLE ( 'NONE', #95, 4.099999999999999645 ) ;
#197 = PRODUCT ( 'e445', 'e445', '', ( #133 ) ) ;
#198 = ORIENTED_EDGE ( 'NONE', *, *, #98, .F. ) ;
#199 = CC_DESIGN_PERSON_AND_ORGANIZATION_ASSIGNMENT ( #111, #201, ( #197 ) ) ;
#200 = CIRCLE ( 'NONE', #136, 7.000000000000000000 ) ;
#201 = PERSON_AND_ORGANIZATION_ROLE ( 'design_owner' ) ;
#202 = DIRECTION ( 'NONE',  ( -0.000000000000000000, -0.000000000000000000, -1.000000000000000000 ) ) ;
#203 = ORIENTED_EDGE ( 'NONE', *, *, #11, .F. ) ;
#204 = APPROVAL ( #85, 'NEURÈENÝ' ) ;
#205 = PERSON_AND_ORGANIZATION ( #14, #280 ) ;
#206 = CARTESIAN_POINT ( 'NONE',  ( 0.000000000000000000, 0.000000000000000000, 5.200000000000009948 ) ) ;
#207 = PERSON_AND_ORGANIZATION ( #14, #280 ) ;
#208 = DIRECTION ( 'NONE',  ( 1.000000000000000000, 0.000000000000000000, 0.000000000000000000 ) ) ;
#209 = EDGE_LOOP ( 'NONE', ( #82, #108 ) ) ;
#210 = CC_DESIGN_DATE_AND_TIME_ASSIGNMENT ( #21, #113, ( #254 ) ) ;
#211 = CARTESIAN_POINT ( 'NONE',  ( -7.000000000000000000, 0.000000000000000000, 5.000000000000000000 ) ) ;
#212 = FACE_OUTER_BOUND ( 'NONE', #195, .T. ) ;
#213 = AXIS2_PLACEMENT_3D ( 'NONE', #16, #286, #70 ) ;
#214 = CIRCLE ( 'NONE', #118, 4.299999999999998934 ) ;
#215 = CARTESIAN_POINT ( 'NONE',  ( -4.299999999999998934, 5.265981236333617484E-16, 5.200000000000009948 ) ) ;
#216 = EDGE_CURVE ( 'NONE', #252, #92, #101, .T. ) ;
#217 = DIRECTION ( 'NONE',  ( -1.000000000000000000, 1.224646799147353454E-16, 0.000000000000000000 ) ) ;
#218 = CYLINDRICAL_SURFACE ( 'NONE', #178, 4.099999999999999645 ) ;
#219 = VECTOR ( 'NONE', #279, 1000.000000000000000 ) ;
#220 = EDGE_CURVE ( 'NONE', #66, #132, #193, .T. ) ;
#221 = ORIENTED_EDGE ( 'NONE', *, *, #42, .T. ) ;
#222 = VERTEX_POINT ( 'NONE', #93 ) ;
#223 = AXIS2_PLACEMENT_3D ( 'NONE', #59, #270, #170 ) ;
#224 = PRODUCT_DEFINITION_SHAPE ( 'NONE', 'NONE',  #254 ) ;
#225 = EDGE_LOOP ( 'NONE', ( #180, #41, #258, #203 ) ) ;
#226 = PERSON_AND_ORGANIZATION ( #14, #280 ) ;
#227 = ORIENTED_EDGE ( 'NONE', *, *, #266, .F. ) ;
#228 = LOCAL_TIME ( 14, 32, 28.00000000000000000, #277 ) ;
#229 = DIRECTION ( 'NONE',  ( -0.000000000000000000, -0.000000000000000000, -1.000000000000000000 ) ) ;
#230 = VECTOR ( 'NONE', #6, 1000.000000000000000 ) ;
#231 = APPROVAL_DATE_TIME ( #261, #91 ) ;
#232 = PERSON_AND_ORGANIZATION_ROLE ( 'creator' ) ;
#233 = DIRECTION ( 'NONE',  ( 1.000000000000000000, 0.000000000000000000, 0.000000000000000000 ) ) ;
#234 = CALENDAR_DATE ( 2022, 7, 7 ) ;
#235 = CARTESIAN_POINT ( 'NONE',  ( -7.000000000000000000, 0.000000000000000000, 0.000000000000000000 ) ) ;
#236 = APPROVAL_ROLE ( '' ) ;
#237 = CARTESIAN_POINT ( 'NONE',  ( -4.099999999999999645, 0.000000000000000000, 5.200000000000009948 ) ) ;
#238 = CIRCLE ( 'NONE', #40, 7.000000000000000000 ) ;
#239 = ADVANCED_FACE ( 'NONE', ( #249 ), #58, .F. ) ;
#240 = APPROVAL_STATUS ( 'not_yet_approved' ) ;
#241 = DIRECTION ( 'NONE',  ( 0.000000000000000000, 0.000000000000000000, 1.000000000000000000 ) ) ;
#242 = SHAPE_DEFINITION_REPRESENTATION ( #224, #67 ) ;
#243 = DIRECTION ( 'NONE',  ( 0.000000000000000000, 0.000000000000000000, 1.000000000000000000 ) ) ;
#244 = EDGE_CURVE ( 'NONE', #64, #222, #54, .T. ) ;
#245 = DIRECTION ( 'NONE',  ( -1.000000000000000000, 0.000000000000000000, 0.000000000000000000 ) ) ;
#246 = AXIS2_PLACEMENT_3D ( 'NONE', #20, #112, #96 ) ;
#247 = DIRECTION ( 'NONE',  ( 1.000000000000000000, 0.000000000000000000, 0.000000000000000000 ) ) ;
#248 = DIRECTION ( 'NONE',  ( 0.000000000000000000, 0.000000000000000000, 1.000000000000000000 ) ) ;
#249 = FACE_OUTER_BOUND ( 'NONE', #251, .T. ) ;
#250 = CIRCLE ( 'NONE', #89, 4.099999999999999645 ) ;
#251 = EDGE_LOOP ( 'NONE', ( #227, #130 ) ) ;
#252 = VERTEX_POINT ( 'NONE', #211 ) ;
#253 = EDGE_LOOP ( 'NONE', ( #301, #87 ) ) ;
#254 = PRODUCT_DEFINITION ( 'NEZNÁMÝ', '', #61, #38 ) ;
#255 = CALENDAR_DATE ( 2022, 7, 7 ) ;
#256 = DIRECTION ( 'NONE',  ( 1.000000000000000000, 0.000000000000000000, 0.000000000000000000 ) ) ;
#257 = DIRECTION ( 'NONE',  ( -1.000000000000000000, 0.000000000000000000, 0.000000000000000000 ) ) ;
#258 = ORIENTED_EDGE ( 'NONE', *, *, #45, .T. ) ;
#259 = CARTESIAN_POINT ( 'NONE',  ( 0.000000000000000000, 0.000000000000000000, 5.000000000000000000 ) ) ;
#260 = APPROVAL ( #139, 'NEURÈENÝ' ) ;
#261 = DATE_AND_TIME ( #164, #290 ) ;
#262 = ORIENTED_EDGE ( 'NONE', *, *, #216, .F. ) ;
#263 = AXIS2_PLACEMENT_3D ( 'NONE', #150, #121, #190 ) ;
#264 = APPROVAL_PERSON_ORGANIZATION ( #205, #260, #236 ) ;
#265 = CARTESIAN_POINT ( 'NONE',  ( 0.000000000000000000, 0.000000000000000000, 255.0000000000000000 ) ) ;
#266 = EDGE_CURVE ( 'NONE', #92, #222, #135, .T. ) ;
#267 = CARTESIAN_POINT ( 'NONE',  ( 0.000000000000000000, 0.000000000000000000, 255.0000000000000000 ) ) ;
#268 = DIRECTION ( 'NONE',  ( 1.000000000000000000, 0.000000000000000000, 0.000000000000000000 ) ) ;
#269 = DIRECTION ( 'NONE',  ( 1.000000000000000000, 0.000000000000000000, 0.000000000000000000 ) ) ;
#270 = DIRECTION ( 'NONE',  ( 0.000000000000000000, 0.000000000000000000, 1.000000000000000000 ) ) ;
#271 = ADVANCED_FACE ( 'NONE', ( #288, #35 ), #146, .T. ) ;
#272 = AXIS2_PLACEMENT_3D ( 'NONE', #215, #152, #217 ) ;
#273 = APPLICATION_PROTOCOL_DEFINITION ( 'international standard', 'config_control_design', 1994, #65 ) ;
#274 = CC_DESIGN_PERSON_AND_ORGANIZATION_ASSIGNMENT ( #226, #115, ( #61 ) ) ;
#275 = VERTEX_POINT ( 'NONE', #292 ) ;
#276 = CIRCLE ( 'NONE', #246, 4.099999999999999645 ) ;
#277 = COORDINATED_UNIVERSAL_TIME_OFFSET ( 1, 0, .AHEAD. ) ;
#278 = DIRECTION ( 'NONE',  ( 0.000000000000000000, 0.000000000000000000, 1.000000000000000000 ) ) ;
#279 = DIRECTION ( 'NONE',  ( -0.000000000000000000, -0.000000000000000000, -1.000000000000000000 ) ) ;
#280 = ORGANIZATION ( 'NEURÈENÝ', 'NEURÈENÝ', '' ) ;
#281 = DATE_AND_TIME ( #46, #297 ) ;
#282 = DIRECTION ( 'NONE',  ( -0.000000000000000000, -0.000000000000000000, -1.000000000000000000 ) ) ;
#283 = AXIS2_PLACEMENT_3D ( 'NONE', #125, #36, #126 ) ;
#284 = DATE_TIME_ROLE ( 'classification_date' ) ;
#285 = CARTESIAN_POINT ( 'NONE',  ( 7.000000000000000000, 8.572527594031473190E-16, 5.000000000000000000 ) ) ;
#286 = DIRECTION ( 'NONE',  ( 0.000000000000000000, 0.000000000000000000, 1.000000000000000000 ) ) ;
#287 = LINE ( 'NONE', #187, #219 ) ;
#288 = FACE_BOUND ( 'NONE', #162, .T. ) ;
#289 = CC_DESIGN_PERSON_AND_ORGANIZATION_ASSIGNMENT ( #207, #304, ( #61 ) ) ;
#290 = LOCAL_TIME ( 14, 32, 28.00000000000000000, #29 ) ;
#291 = CARTESIAN_POINT ( 'NONE',  ( 0.000000000000000000, 0.000000000000000000, 0.000000000000000000 ) ) ;
#292 = CARTESIAN_POINT ( 'NONE',  ( -4.099999999999999645, 0.000000000000000000, 255.0000000000000000 ) ) ;
#293 = AXIS2_PLACEMENT_3D ( 'NONE', #165, #53, #25 ) ;
#294 = ADVANCED_FACE ( 'NONE', ( #79 ), #168, .T. ) ;
#295 = CARTESIAN_POINT ( 'NONE',  ( 0.000000000000000000, 0.000000000000000000, 5.000000000000000000 ) ) ;
#296 = ORIENTED_EDGE ( 'NONE', *, *, #181, .F. ) ;
#297 = LOCAL_TIME ( 14, 32, 28.00000000000000000, #182 ) ;
#298 = EDGE_CURVE ( 'NONE', #64, #252, #200, .T. ) ;
#299 = PERSON_AND_ORGANIZATION ( #14, #280 ) ;
#300 = EDGE_LOOP ( 'NONE', ( #296, #27, #105, #37 ) ) ;
#301 = ORIENTED_EDGE ( 'NONE', *, *, #7, .T. ) ;
#302 = COORDINATED_UNIVERSAL_TIME_OFFSET ( 1, 0, .AHEAD. ) ;
#303 = VERTEX_POINT ( 'NONE', #31 ) ;
#304 = PERSON_AND_ORGANIZATION_ROLE ( 'design_supplier' ) ;
#305 = CYLINDRICAL_SURFACE ( 'NONE', #83, 4.099999999999999645 ) ;
#306 = PERSON_AND_ORGANIZATION ( #14, #280 ) ;
#307 = EDGE_LOOP ( 'NONE', ( #129, #120, #17, #262 ) ) ;
ENDSEC;
END-ISO-10303-21;
