ISO-10303-21;
HEADER;
FILE_DESCRIPTION (( 'STEP AP203' ),
    '1' );
FILE_NAME ('1bf9.STEP',
    '2022-07-07T12:29:40',
    ( '' ),
    ( '' ),
    'SwSTEP 2.0',
    'SolidWorks 2019',
    '' );
FILE_SCHEMA (( 'CONFIG_CONTROL_DESIGN' ));
ENDSEC;

DATA;
#1 = DIRECTION ( 'NONE',  ( 1.000000000000000000, 0.000000000000000000, 0.000000000000000000 ) ) ;
#2 = EDGE_LOOP ( 'NONE', ( #210, #186, #233, #115 ) ) ;
#3 = PLANE ( 'NONE',  #208 ) ;
#4 = DIRECTION ( 'NONE',  ( -1.000000000000000000, 0.000000000000000000, 0.000000000000000000 ) ) ;
#5 = CARTESIAN_POINT ( 'NONE',  ( 4.699999999999999289, 0.000000000000000000, 5.000000000000005329 ) ) ;
#6 = VECTOR ( 'NONE', #263, 1000.000000000000000 ) ;
#7 = TOROIDAL_SURFACE ( 'NONE', #294, 4.699999999999999289, 0.2000000000000000111 ) ;
#8 = CARTESIAN_POINT ( 'NONE',  ( 0.000000000000000000, 0.000000000000000000, 5.000000000000000000 ) ) ;
#9 = DIRECTION ( 'NONE',  ( 1.000000000000000000, 0.000000000000000000, 0.000000000000000000 ) ) ;
#10 = CIRCLE ( 'NONE', #119, 7.000000000000000000 ) ;
#11 = ADVANCED_FACE ( 'NONE', ( #283 ), #44, .F. ) ;
#12 = CALENDAR_DATE ( 2022, 7, 7 ) ;
#13 = EDGE_LOOP ( 'NONE', ( #112, #167, #87, #166 ) ) ;
#14 = APPROVAL_STATUS ( 'not_yet_approved' ) ;
#15 = EDGE_CURVE ( 'NONE', #70, #307, #164, .T. ) ;
#16 = PERSON_AND_ORGANIZATION ( #215, #99 ) ;
#17 =( GEOMETRIC_REPRESENTATION_CONTEXT ( 3 ) GLOBAL_UNCERTAINTY_ASSIGNED_CONTEXT ( ( #297 ) ) GLOBAL_UNIT_ASSIGNED_CONTEXT ( ( #178, #185, #272 ) ) REPRESENTATION_CONTEXT ( 'NONE', 'WORKASPACE' ) );
#18 = ORIENTED_EDGE ( 'NONE', *, *, #56, .T. ) ;
#19 = CARTESIAN_POINT ( 'NONE',  ( 0.000000000000000000, 0.000000000000000000, 255.0000000000000000 ) ) ;
#20 = TOROIDAL_SURFACE ( 'NONE', #234, 4.699999999999999289, 0.2000000000000000111 ) ;
#21 = DIRECTION ( 'NONE',  ( 1.000000000000000000, 0.000000000000000000, 0.000000000000000000 ) ) ;
#22 = ORIENTED_EDGE ( 'NONE', *, *, #84, .T. ) ;
#23 = CARTESIAN_POINT ( 'NONE',  ( -7.000000000000000000, 0.000000000000000000, 0.000000000000000000 ) ) ;
#24 = CIRCLE ( 'NONE', #155, 7.000000000000000000 ) ;
#25 = VERTEX_POINT ( 'NONE', #50 ) ;
#26 = AXIS2_PLACEMENT_3D ( 'NONE', #250, #201, #246 ) ;
#27 = FACE_OUTER_BOUND ( 'NONE', #271, .T. ) ;
#28 = DIRECTION ( 'NONE',  ( 1.000000000000000000, 0.000000000000000000, -0.000000000000000000 ) ) ;
#29 = EDGE_CURVE ( 'NONE', #25, #260, #141, .T. ) ;
#30 = CARTESIAN_POINT ( 'NONE',  ( 0.000000000000000000, 0.000000000000000000, 255.0000000000000000 ) ) ;
#31 = CIRCLE ( 'NONE', #300, 4.500000000000000000 ) ;
#32 = FACE_OUTER_BOUND ( 'NONE', #256, .T. ) ;
#33 = FACE_OUTER_BOUND ( 'NONE', #180, .T. ) ;
#34 = EDGE_CURVE ( 'NONE', #154, #260, #24, .T. ) ;
#35 = MANIFOLD_SOLID_BREP ( 'Zaoblit1', #253 ) ;
#36 = APPROVAL_STATUS ( 'not_yet_approved' ) ;
#37 = ORIENTED_EDGE ( 'NONE', *, *, #249, .T. ) ;
#38 = ADVANCED_FACE ( 'NONE', ( #91 ), #143, .T. ) ;
#39 = COORDINATED_UNIVERSAL_TIME_OFFSET ( 1, 0, .AHEAD. ) ;
#40 = CC_DESIGN_DATE_AND_TIME_ASSIGNMENT ( #183, #275, ( #123 ) ) ;
#41 = COORDINATED_UNIVERSAL_TIME_OFFSET ( 1, 0, .AHEAD. ) ;
#42 = CIRCLE ( 'NONE', #236, 7.000000000000000000 ) ;
#43 = ORIENTED_EDGE ( 'NONE', *, *, #177, .F. ) ;
#44 = PLANE ( 'NONE',  #47 ) ;
#45 = PRODUCT_DEFINITION_SHAPE ( 'NONE', 'NONE',  #262 ) ;
#46 = VERTEX_POINT ( 'NONE', #305 ) ;
#47 = AXIS2_PLACEMENT_3D ( 'NONE', #235, #97, #137 ) ;
#48 = ORIENTED_EDGE ( 'NONE', *, *, #232, .F. ) ;
#49 = EDGE_LOOP ( 'NONE', ( #214, #169 ) ) ;
#50 = CARTESIAN_POINT ( 'NONE',  ( 7.000000000000000000, 8.572527594031473190E-16, 5.000000000000000000 ) ) ;
#51 = VECTOR ( 'NONE', #118, 1000.000000000000000 ) ;
#52 = PLANE ( 'NONE',  #139 ) ;
#53 = VECTOR ( 'NONE', #57, 1000.000000000000000 ) ;
#54 = AXIS2_PLACEMENT_3D ( 'NONE', #104, #218, #4 ) ;
#55 = FACE_OUTER_BOUND ( 'NONE', #2, .T. ) ;
#56 = EDGE_CURVE ( 'NONE', #276, #69, #117, .T. ) ;
#57 = DIRECTION ( 'NONE',  ( -0.000000000000000000, -0.000000000000000000, -1.000000000000000000 ) ) ;
#58 = CC_DESIGN_PERSON_AND_ORGANIZATION_ASSIGNMENT ( #301, #209, ( #123 ) ) ;
#59 = CC_DESIGN_SECURITY_CLASSIFICATION ( #123, ( #76 ) ) ;
#60 = CARTESIAN_POINT ( 'NONE',  ( 7.000000000000000000, 8.572527594031473190E-16, 0.000000000000000000 ) ) ;
#61 = ADVANCED_BREP_SHAPE_REPRESENTATION ( '1bf9', ( #35, #26 ), #17 ) ;
#62 = APPLICATION_PROTOCOL_DEFINITION ( 'international standard', 'config_control_design', 1994, #258 ) ;
#63 = PERSON_AND_ORGANIZATION_ROLE ( 'design_owner' ) ;
#64 = PERSON_AND_ORGANIZATION ( #215, #99 ) ;
#65 = ORIENTED_EDGE ( 'NONE', *, *, #142, .T. ) ;
#66 = APPROVAL_ROLE ( '' ) ;
#67 = ORIENTED_EDGE ( 'NONE', *, *, #34, .T. ) ;
#68 = ORIENTED_EDGE ( 'NONE', *, *, #286, .F. ) ;
#69 = VERTEX_POINT ( 'NONE', #279 ) ;
#70 = VERTEX_POINT ( 'NONE', #189 ) ;
#71 = CIRCLE ( 'NONE', #98, 4.500000000000000000 ) ;
#72 = CARTESIAN_POINT ( 'NONE',  ( 0.000000000000000000, 0.000000000000000000, 255.0000000000000000 ) ) ;
#73 = CARTESIAN_POINT ( 'NONE',  ( 7.000000000000000000, 8.572527594031473190E-16, 5.000000000000000000 ) ) ;
#74 = CARTESIAN_POINT ( 'NONE',  ( 0.000000000000000000, 0.000000000000000000, 5.200000000000009948 ) ) ;
#75 = DIRECTION ( 'NONE',  ( 0.000000000000000000, 0.000000000000000000, 1.000000000000000000 ) ) ;
#76 = PRODUCT_DEFINITION_FORMATION_WITH_SPECIFIED_SOURCE ( 'LIBOVOLNÝ', '', #207, .NOT_KNOWN. ) ;
#77 = CARTESIAN_POINT ( 'NONE',  ( 0.000000000000000000, 0.000000000000000000, 255.0000000000000000 ) ) ;
#78 = FACE_OUTER_BOUND ( 'NONE', #124, .T. ) ;
#79 = CARTESIAN_POINT ( 'NONE',  ( 0.000000000000000000, 0.000000000000000000, 5.000000000000000000 ) ) ;
#80 = DATE_AND_TIME ( #206, #280 ) ;
#81 = ORIENTED_EDGE ( 'NONE', *, *, #174, .T. ) ;
#82 = ORIENTED_EDGE ( 'NONE', *, *, #199, .T. ) ;
#83 = DATE_TIME_ROLE ( 'creation_date' ) ;
#84 = EDGE_CURVE ( 'NONE', #46, #154, #190, .T. ) ;
#85 = LOCAL_TIME ( 14, 29, 40.00000000000000000, #86 ) ;
#86 = COORDINATED_UNIVERSAL_TIME_OFFSET ( 1, 0, .AHEAD. ) ;
#87 = ORIENTED_EDGE ( 'NONE', *, *, #177, .T. ) ;
#88 = APPROVAL_ROLE ( '' ) ;
#89 = ORIENTED_EDGE ( 'NONE', *, *, #257, .F. ) ;
#90 = EDGE_CURVE ( 'NONE', #260, #154, #10, .T. ) ;
#91 = FACE_OUTER_BOUND ( 'NONE', #13, .T. ) ;
#92 = CIRCLE ( 'NONE', #157, 0.1999999999999996503 ) ;
#93 = CC_DESIGN_APPROVAL ( #148, ( #76 ) ) ;
#94 = COORDINATED_UNIVERSAL_TIME_OFFSET ( 1, 0, .AHEAD. ) ;
#95 = DIRECTION ( 'NONE',  ( 1.000000000000000000, 0.000000000000000000, 0.000000000000000000 ) ) ;
#96 = DIRECTION ( 'NONE',  ( -0.000000000000000000, -0.000000000000000000, -1.000000000000000000 ) ) ;
#97 = DIRECTION ( 'NONE',  ( 0.000000000000000000, 0.000000000000000000, 1.000000000000000000 ) ) ;
#98 = AXIS2_PLACEMENT_3D ( 'NONE', #149, #240, #175 ) ;
#99 = ORGANIZATION ( 'NEURÈENÝ', 'NEURÈENÝ', '' ) ;
#100 = DIRECTION ( 'NONE',  ( -1.000000000000000000, 0.000000000000000000, 0.000000000000000000 ) ) ;
#101 = CYLINDRICAL_SURFACE ( 'NONE', #217, 4.500000000000000000 ) ;
#102 = CC_DESIGN_PERSON_AND_ORGANIZATION_ASSIGNMENT ( #295, #251, ( #262 ) ) ;
#103 = DIRECTION ( 'NONE',  ( 1.000000000000000000, 0.000000000000000000, 0.000000000000000000 ) ) ;
#104 = CARTESIAN_POINT ( 'NONE',  ( 0.000000000000000000, 0.000000000000000000, 5.000000000000000000 ) ) ;
#105 = CIRCLE ( 'NONE', #267, 7.000000000000000000 ) ;
#106 = DIRECTION ( 'NONE',  ( 1.000000000000000000, 0.000000000000000000, 0.000000000000000000 ) ) ;
#107 = DIRECTION ( 'NONE',  ( 0.000000000000000000, 0.000000000000000000, -1.000000000000000000 ) ) ;
#108 = CARTESIAN_POINT ( 'NONE',  ( 4.500000000000000000, 5.510910596163088569E-16, 255.0000000000000000 ) ) ;
#109 = APPROVAL_PERSON_ORGANIZATION ( #64, #292, #88 ) ;
#110 = APPROVAL_DATE_TIME ( #133, #148 ) ;
#111 = CALENDAR_DATE ( 2022, 7, 7 ) ;
#112 = ORIENTED_EDGE ( 'NONE', *, *, #174, .F. ) ;
#113 = PERSON_AND_ORGANIZATION_ROLE ( 'design_supplier' ) ;
#114 = APPROVAL_PERSON_ORGANIZATION ( #270, #148, #225 ) ;
#115 = ORIENTED_EDGE ( 'NONE', *, *, #84, .F. ) ;
#116 = DATE_AND_TIME ( #136, #212 ) ;
#117 = CIRCLE ( 'NONE', #200, 4.699999999999999289 ) ;
#118 = DIRECTION ( 'NONE',  ( -0.000000000000000000, -0.000000000000000000, -1.000000000000000000 ) ) ;
#119 = AXIS2_PLACEMENT_3D ( 'NONE', #281, #237, #1 ) ;
#120 = ORIENTED_EDGE ( 'NONE', *, *, #204, .F. ) ;
#121 = CARTESIAN_POINT ( 'NONE',  ( -7.000000000000000000, 0.000000000000000000, 5.000000000000000000 ) ) ;
#122 = FACE_OUTER_BOUND ( 'NONE', #184, .T. ) ;
#123 = SECURITY_CLASSIFICATION ( '', '', #303 ) ;
#124 = EDGE_LOOP ( 'NONE', ( #162, #81, #82, #43 ) ) ;
#125 = CC_DESIGN_PERSON_AND_ORGANIZATION_ASSIGNMENT ( #298, #63, ( #207 ) ) ;
#126 = CYLINDRICAL_SURFACE ( 'NONE', #284, 7.000000000000000000 ) ;
#127 = DIRECTION ( 'NONE',  ( -0.000000000000000000, -0.000000000000000000, -1.000000000000000000 ) ) ;
#128 = CC_DESIGN_PERSON_AND_ORGANIZATION_ASSIGNMENT ( #159, #230, ( #76 ) ) ;
#129 = DIRECTION ( 'NONE',  ( 1.000000000000000000, 0.000000000000000000, 0.000000000000000000 ) ) ;
#130 = CARTESIAN_POINT ( 'NONE',  ( 0.000000000000000000, 0.000000000000000000, 5.000000000000000000 ) ) ;
#131 = APPROVAL_DATE_TIME ( #80, #153 ) ;
#132 = DESIGN_CONTEXT ( 'detailed design', #258, 'design' ) ;
#133 = DATE_AND_TIME ( #12, #151 ) ;
#134 = CIRCLE ( 'NONE', #181, 0.1999999999999996503 ) ;
#135 = CC_DESIGN_APPROVAL ( #292, ( #123 ) ) ;
#136 = CALENDAR_DATE ( 2022, 7, 7 ) ;
#137 = DIRECTION ( 'NONE',  ( 1.000000000000000000, 0.000000000000000000, -0.000000000000000000 ) ) ;
#138 = ORIENTED_EDGE ( 'NONE', *, *, #286, .T. ) ;
#139 = AXIS2_PLACEMENT_3D ( 'NONE', #30, #150, #28 ) ;
#140 = DIRECTION ( 'NONE',  ( -0.000000000000000000, -0.000000000000000000, -1.000000000000000000 ) ) ;
#141 = LINE ( 'NONE', #73, #51 ) ;
#142 = EDGE_CURVE ( 'NONE', #227, #69, #92, .T. ) ;
#143 = CYLINDRICAL_SURFACE ( 'NONE', #277, 4.500000000000000000 ) ;
#144 = VECTOR ( 'NONE', #140, 1000.000000000000000 ) ;
#145 = CIRCLE ( 'NONE', #165, 4.500000000000000000 ) ;
#146 = LINE ( 'NONE', #287, #53 ) ;
#147 = DIRECTION ( 'NONE',  ( -0.000000000000000000, -0.000000000000000000, -1.000000000000000000 ) ) ;
#148 = APPROVAL ( #36, 'NEURÈENÝ' ) ;
#149 = CARTESIAN_POINT ( 'NONE',  ( 0.000000000000000000, 0.000000000000000000, 5.200000000000009948 ) ) ;
#150 = DIRECTION ( 'NONE',  ( 0.000000000000000000, 0.000000000000000000, 1.000000000000000000 ) ) ;
#151 = LOCAL_TIME ( 14, 29, 40.00000000000000000, #41 ) ;
#152 = CARTESIAN_POINT ( 'NONE',  ( 0.000000000000000000, 0.000000000000000000, 5.000000000000000000 ) ) ;
#153 = APPROVAL ( #14, 'NEURÈENÝ' ) ;
#154 = VERTEX_POINT ( 'NONE', #23 ) ;
#155 = AXIS2_PLACEMENT_3D ( 'NONE', #211, #213, #259 ) ;
#156 = COORDINATED_UNIVERSAL_TIME_OFFSET ( 1, 0, .AHEAD. ) ;
#157 = AXIS2_PLACEMENT_3D ( 'NONE', #191, #170, #238 ) ;
#158 = ORIENTED_EDGE ( 'NONE', *, *, #232, .T. ) ;
#159 = PERSON_AND_ORGANIZATION ( #215, #99 ) ;
#160 = ADVANCED_FACE ( 'NONE', ( #122 ), #20, .F. ) ;
#161 = APPROVAL_STATUS ( 'not_yet_approved' ) ;
#162 = ORIENTED_EDGE ( 'NONE', *, *, #249, .F. ) ;
#163 = PERSON_AND_ORGANIZATION ( #215, #99 ) ;
#164 = CIRCLE ( 'NONE', #221, 4.500000000000000000 ) ;
#165 = AXIS2_PLACEMENT_3D ( 'NONE', #74, #293, #106 ) ;
#166 = ORIENTED_EDGE ( 'NONE', *, *, #204, .T. ) ;
#167 = ORIENTED_EDGE ( 'NONE', *, *, #15, .F. ) ;
#168 = ADVANCED_FACE ( 'NONE', ( #192 ), #52, .T. ) ;
#169 = ORIENTED_EDGE ( 'NONE', *, *, #90, .F. ) ;
#170 = DIRECTION ( 'NONE',  ( 1.224646799147353207E-16, 1.000000000000000000, -0.000000000000000000 ) ) ;
#171 = ORIENTED_EDGE ( 'NONE', *, *, #195, .T. ) ;
#172 = DIRECTION ( 'NONE',  ( 1.000000000000000000, 0.000000000000000000, 0.000000000000000000 ) ) ;
#173 = DIRECTION ( 'NONE',  ( -0.000000000000000000, -0.000000000000000000, -1.000000000000000000 ) ) ;
#174 = EDGE_CURVE ( 'NONE', #307, #248, #289, .T. ) ;
#175 = DIRECTION ( 'NONE',  ( 1.000000000000000000, 0.000000000000000000, 0.000000000000000000 ) ) ;
#176 = DIRECTION ( 'NONE',  ( 1.000000000000000000, 0.000000000000000000, 0.000000000000000000 ) ) ;
#177 = EDGE_CURVE ( 'NONE', #70, #227, #146, .T. ) ;
#178 =( LENGTH_UNIT ( ) NAMED_UNIT ( * ) SI_UNIT ( .MILLI., .METRE. ) );
#179 = APPLICATION_PROTOCOL_DEFINITION ( 'international standard', 'config_control_design', 1994, #228 ) ;
#180 = EDGE_LOOP ( 'NONE', ( #282, #48, #22, #67 ) ) ;
#182 = ADVANCED_FACE ( 'NONE', ( #244, #32 ), #3, .T. ) ;
#181 = AXIS2_PLACEMENT_3D ( 'NONE', #224, #264, #107 ) ;
#183 = DATE_AND_TIME ( #231, #85 ) ;
#184 = EDGE_LOOP ( 'NONE', ( #252, #261, #255, #68 ) ) ;
#185 =( NAMED_UNIT ( * ) PLANE_ANGLE_UNIT ( ) SI_UNIT ( $, .RADIAN. ) );
#186 = ORIENTED_EDGE ( 'NONE', *, *, #29, .T. ) ;
#187 = DIRECTION ( 'NONE',  ( -0.000000000000000000, -0.000000000000000000, -1.000000000000000000 ) ) ;
#188 = CIRCLE ( 'NONE', #222, 4.699999999999999289 ) ;
#189 = CARTESIAN_POINT ( 'NONE',  ( -4.500000000000000000, 0.000000000000000000, 255.0000000000000000 ) ) ;
#190 = LINE ( 'NONE', #121, #144 ) ;
#191 = CARTESIAN_POINT ( 'NONE',  ( -4.699999999999999289, 5.755839955992558669E-16, 5.200000000000009948 ) ) ;
#192 = FACE_OUTER_BOUND ( 'NONE', #299, .T. ) ;
#193 = CARTESIAN_POINT ( 'NONE',  ( 0.000000000000000000, 0.000000000000000000, 5.200000000000009948 ) ) ;
#194 = DIRECTION ( 'NONE',  ( 0.000000000000000000, 0.000000000000000000, 1.000000000000000000 ) ) ;
#195 = EDGE_CURVE ( 'NONE', #25, #46, #42, .T. ) ;
#196 = CARTESIAN_POINT ( 'NONE',  ( 0.000000000000000000, 0.000000000000000000, 255.0000000000000000 ) ) ;
#197 = CARTESIAN_POINT ( 'NONE',  ( 4.500000000000000000, 5.510910596163088569E-16, 5.200000000000009948 ) ) ;
#198 = DIRECTION ( 'NONE',  ( 0.000000000000000000, 0.000000000000000000, 1.000000000000000000 ) ) ;
#199 = EDGE_CURVE ( 'NONE', #248, #227, #71, .T. ) ;
#200 = AXIS2_PLACEMENT_3D ( 'NONE', #239, #187, #95 ) ;
#201 = DIRECTION ( 'NONE',  ( 0.000000000000000000, 0.000000000000000000, 1.000000000000000000 ) ) ;
#202 = PRODUCT_RELATED_PRODUCT_CATEGORY ( 'detail', '', ( #207 ) ) ;
#203 = EDGE_LOOP ( 'NONE', ( #18, #138 ) ) ;
#204 = EDGE_CURVE ( 'NONE', #227, #248, #145, .T. ) ;
#205 = DATE_AND_TIME ( #111, #268 ) ;
#206 = CALENDAR_DATE ( 2022, 7, 7 ) ;
#207 = PRODUCT ( '1bf9', '1bf9', '', ( #247 ) ) ;
#208 = AXIS2_PLACEMENT_3D ( 'NONE', #130, #194, #245 ) ;
#209 = PERSON_AND_ORGANIZATION_ROLE ( 'classification_officer' ) ;
#210 = ORIENTED_EDGE ( 'NONE', *, *, #195, .F. ) ;
#211 = CARTESIAN_POINT ( 'NONE',  ( 0.000000000000000000, 0.000000000000000000, 0.000000000000000000 ) ) ;
#212 = LOCAL_TIME ( 14, 29, 40.00000000000000000, #94 ) ;
#213 = DIRECTION ( 'NONE',  ( 0.000000000000000000, 0.000000000000000000, 1.000000000000000000 ) ) ;
#214 = ORIENTED_EDGE ( 'NONE', *, *, #34, .F. ) ;
#215 = PERSON ( 'NEURÈENÝ', 'NEURÈENÝ', 'NEURÈENÝ', ('NEURÈENÝ'), ('NEURÈENÝ'), ('NEURÈENÝ') ) ;
#216 = APPROVAL_DATE_TIME ( #116, #292 ) ;
#217 = AXIS2_PLACEMENT_3D ( 'NONE', #196, #147, #269 ) ;
#218 = DIRECTION ( 'NONE',  ( -0.000000000000000000, -0.000000000000000000, -1.000000000000000000 ) ) ;
#219 = CYLINDRICAL_SURFACE ( 'NONE', #54, 7.000000000000000000 ) ;
#220 = DIRECTION ( 'NONE',  ( -1.000000000000000000, 0.000000000000000000, 0.000000000000000000 ) ) ;
#221 = AXIS2_PLACEMENT_3D ( 'NONE', #19, #304, #21 ) ;
#222 = AXIS2_PLACEMENT_3D ( 'NONE', #242, #127, #172 ) ;
#223 = DIRECTION ( 'NONE',  ( 0.000000000000000000, 0.000000000000000000, 1.000000000000000000 ) ) ;
#224 = CARTESIAN_POINT ( 'NONE',  ( 4.699999999999999289, 0.000000000000000000, 5.200000000000009948 ) ) ;
#225 = APPROVAL_ROLE ( '' ) ;
#226 = APPROVAL_PERSON_ORGANIZATION ( #163, #153, #66 ) ;
#227 = VERTEX_POINT ( 'NONE', #288 ) ;
#228 = APPLICATION_CONTEXT ( 'configuration controlled 3d designs of mechanical parts and assemblies' ) ;
#229 = ADVANCED_FACE ( 'NONE', ( #78 ), #101, .T. ) ;
#230 = PERSON_AND_ORGANIZATION_ROLE ( 'creator' ) ;
#231 = CALENDAR_DATE ( 2022, 7, 7 ) ;
#232 = EDGE_CURVE ( 'NONE', #46, #25, #105, .T. ) ;
#233 = ORIENTED_EDGE ( 'NONE', *, *, #90, .T. ) ;
#234 = AXIS2_PLACEMENT_3D ( 'NONE', #285, #243, #103 ) ;
#235 = CARTESIAN_POINT ( 'NONE',  ( 0.000000000000000000, 0.000000000000000000, 0.000000000000000000 ) ) ;
#236 = AXIS2_PLACEMENT_3D ( 'NONE', #79, #223, #176 ) ;
#237 = DIRECTION ( 'NONE',  ( 0.000000000000000000, 0.000000000000000000, 1.000000000000000000 ) ) ;
#238 = DIRECTION ( 'NONE',  ( -1.000000000000000000, 1.224646799147353454E-16, 0.000000000000000000 ) ) ;
#239 = CARTESIAN_POINT ( 'NONE',  ( 0.000000000000000000, 0.000000000000000000, 5.000000000000000000 ) ) ;
#240 = DIRECTION ( 'NONE',  ( 0.000000000000000000, 0.000000000000000000, 1.000000000000000000 ) ) ;
#241 = CC_DESIGN_DATE_AND_TIME_ASSIGNMENT ( #205, #83, ( #262 ) ) ;
#242 = CARTESIAN_POINT ( 'NONE',  ( 0.000000000000000000, 0.000000000000000000, 5.000000000000000000 ) ) ;
#243 = DIRECTION ( 'NONE',  ( 0.000000000000000000, 0.000000000000000000, 1.000000000000000000 ) ) ;
#244 = FACE_BOUND ( 'NONE', #203, .T. ) ;
#245 = DIRECTION ( 'NONE',  ( 1.000000000000000000, 0.000000000000000000, -0.000000000000000000 ) ) ;
#246 = DIRECTION ( 'NONE',  ( 1.000000000000000000, 0.000000000000000000, 0.000000000000000000 ) ) ;
#247 = MECHANICAL_CONTEXT ( 'NONE', #228, 'mechanical' ) ;
#248 = VERTEX_POINT ( 'NONE', #197 ) ;
#249 = EDGE_CURVE ( 'NONE', #307, #70, #31, .T. ) ;
#250 = CARTESIAN_POINT ( 'NONE',  ( 0.000000000000000000, 0.000000000000000000, 0.000000000000000000 ) ) ;
#251 = PERSON_AND_ORGANIZATION_ROLE ( 'creator' ) ;
#252 = ORIENTED_EDGE ( 'NONE', *, *, #142, .F. ) ;
#253 = CLOSED_SHELL ( 'NONE', ( #254, #229, #290, #302, #182, #11, #38, #168, #160 ) ) ;
#254 = ADVANCED_FACE ( 'NONE', ( #27 ), #7, .F. ) ;
#255 = ORIENTED_EDGE ( 'NONE', *, *, #257, .T. ) ;
#256 = EDGE_LOOP ( 'NONE', ( #158, #171 ) ) ;
#257 = EDGE_CURVE ( 'NONE', #248, #276, #134, .T. ) ;
#258 = APPLICATION_CONTEXT ( 'configuration controlled 3d designs of mechanical parts and assemblies' ) ;
#259 = DIRECTION ( 'NONE',  ( 1.000000000000000000, 0.000000000000000000, 0.000000000000000000 ) ) ;
#260 = VERTEX_POINT ( 'NONE', #60 ) ;
#261 = ORIENTED_EDGE ( 'NONE', *, *, #199, .F. ) ;
#262 = PRODUCT_DEFINITION ( 'NEZNÁMÝ', '', #76, #132 ) ;
#263 = DIRECTION ( 'NONE',  ( -0.000000000000000000, -0.000000000000000000, -1.000000000000000000 ) ) ;
#264 = DIRECTION ( 'NONE',  ( 0.000000000000000000, -1.000000000000000000, 0.000000000000000000 ) ) ;
#265 = CARTESIAN_POINT ( 'NONE',  ( 4.500000000000000000, 5.510910596163088569E-16, 255.0000000000000000 ) ) ;
#266 = DIRECTION ( 'NONE',  ( 0.000000000000000000, 0.000000000000000000, 1.000000000000000000 ) ) ;
#267 = AXIS2_PLACEMENT_3D ( 'NONE', #8, #75, #129 ) ;
#268 = LOCAL_TIME ( 14, 29, 40.00000000000000000, #156 ) ;
#269 = DIRECTION ( 'NONE',  ( -1.000000000000000000, 0.000000000000000000, 0.000000000000000000 ) ) ;
#270 = PERSON_AND_ORGANIZATION ( #215, #99 ) ;
#271 = EDGE_LOOP ( 'NONE', ( #120, #65, #296, #89 ) ) ;
#272 =( NAMED_UNIT ( * ) SI_UNIT ( $, .STERADIAN. ) SOLID_ANGLE_UNIT ( ) );
#273 = ORIENTED_EDGE ( 'NONE', *, *, #15, .T. ) ;
#274 = CC_DESIGN_PERSON_AND_ORGANIZATION_ASSIGNMENT ( #16, #113, ( #76 ) ) ;
#275 = DATE_TIME_ROLE ( 'classification_date' ) ;
#276 = VERTEX_POINT ( 'NONE', #5 ) ;
#277 = AXIS2_PLACEMENT_3D ( 'NONE', #72, #96, #100 ) ;
#278 = SHAPE_DEFINITION_REPRESENTATION ( #45, #61 ) ;
#279 = CARTESIAN_POINT ( 'NONE',  ( -4.699999999999999289, 5.755839955992558669E-16, 5.000000000000005329 ) ) ;
#280 = LOCAL_TIME ( 14, 29, 40.00000000000000000, #39 ) ;
#281 = CARTESIAN_POINT ( 'NONE',  ( 0.000000000000000000, 0.000000000000000000, 0.000000000000000000 ) ) ;
#282 = ORIENTED_EDGE ( 'NONE', *, *, #29, .F. ) ;
#283 = FACE_OUTER_BOUND ( 'NONE', #49, .T. ) ;
#284 = AXIS2_PLACEMENT_3D ( 'NONE', #152, #173, #220 ) ;
#285 = CARTESIAN_POINT ( 'NONE',  ( 0.000000000000000000, 0.000000000000000000, 5.200000000000009948 ) ) ;
#286 = EDGE_CURVE ( 'NONE', #69, #276, #188, .T. ) ;
#287 = CARTESIAN_POINT ( 'NONE',  ( -4.500000000000000000, 0.000000000000000000, 255.0000000000000000 ) ) ;
#288 = CARTESIAN_POINT ( 'NONE',  ( -4.500000000000000000, 0.000000000000000000, 5.200000000000009948 ) ) ;
#289 = LINE ( 'NONE', #265, #6 ) ;
#290 = ADVANCED_FACE ( 'NONE', ( #55 ), #126, .T. ) ;
#291 = DIRECTION ( 'NONE',  ( 1.000000000000000000, 0.000000000000000000, 0.000000000000000000 ) ) ;
#292 = APPROVAL ( #161, 'NEURÈENÝ' ) ;
#293 = DIRECTION ( 'NONE',  ( 0.000000000000000000, 0.000000000000000000, 1.000000000000000000 ) ) ;
#294 = AXIS2_PLACEMENT_3D ( 'NONE', #193, #198, #9 ) ;
#295 = PERSON_AND_ORGANIZATION ( #215, #99 ) ;
#296 = ORIENTED_EDGE ( 'NONE', *, *, #56, .F. ) ;
#297 = UNCERTAINTY_MEASURE_WITH_UNIT (LENGTH_MEASURE( 1.000000000000000082E-05 ), #178, 'distance_accuracy_value', 'NONE');
#298 = PERSON_AND_ORGANIZATION ( #215, #99 ) ;
#299 = EDGE_LOOP ( 'NONE', ( #273, #37 ) ) ;
#300 = AXIS2_PLACEMENT_3D ( 'NONE', #77, #266, #291 ) ;
#301 = PERSON_AND_ORGANIZATION ( #215, #99 ) ;
#302 = ADVANCED_FACE ( 'NONE', ( #33 ), #219, .T. ) ;
#303 = SECURITY_CLASSIFICATION_LEVEL ( 'unclassified' ) ;
#304 = DIRECTION ( 'NONE',  ( 0.000000000000000000, 0.000000000000000000, 1.000000000000000000 ) ) ;
#305 = CARTESIAN_POINT ( 'NONE',  ( -7.000000000000000000, 0.000000000000000000, 5.000000000000000000 ) ) ;
#306 = CC_DESIGN_APPROVAL ( #153, ( #262 ) ) ;
#307 = VERTEX_POINT ( 'NONE', #108 ) ;
ENDSEC;
END-ISO-10303-21;
