ISO-10303-21;
HEADER;
FILE_DESCRIPTION (( 'STEP AP203' ),
    '1' );
FILE_NAME ('f8cc.STEP',
    '2022-06-30T20:25:25',
    ( '' ),
    ( '' ),
    'SwSTEP 2.0',
    'SolidWorks 2019',
    '' );
FILE_SCHEMA (( 'CONFIG_CONTROL_DESIGN' ));
ENDSEC;

DATA;
#1 = LOCAL_TIME ( 22, 25, 25.00000000000000000, #214 ) ;
#2 = DIRECTION ( 'NONE',  ( -1.000000000000000000, 0.000000000000000000, 0.000000000000000000 ) ) ;
#3 = ADVANCED_FACE ( 'NONE', ( #96 ), #179, .T. ) ;
#4 = CARTESIAN_POINT ( 'NONE',  ( 0.000000000000000000, 0.000000000000000000, 102.0000000000000142 ) ) ;
#5 = CYLINDRICAL_SURFACE ( 'NONE', #253, 1.000000000000000000 ) ;
#6 = ORIENTED_EDGE ( 'NONE', *, *, #32, .T. ) ;
#7 = DIRECTION ( 'NONE',  ( 1.000000000000000000, 0.000000000000000000, 0.000000000000000000 ) ) ;
#8 = CC_DESIGN_PERSON_AND_ORGANIZATION_ASSIGNMENT ( #193, #136, ( #72 ) ) ;
#9 =( NAMED_UNIT ( * ) PLANE_ANGLE_UNIT ( ) SI_UNIT ( $, .RADIAN. ) );
#10 = DIRECTION ( 'NONE',  ( 0.000000000000000000, 0.000000000000000000, 1.000000000000000000 ) ) ;
#11 = AXIS2_PLACEMENT_3D ( 'NONE', #103, #81, #232 ) ;
#12 = PERSON_AND_ORGANIZATION ( #20, #61 ) ;
#13 = CALENDAR_DATE ( 2022, 30, 6 ) ;
#14 = AXIS2_PLACEMENT_3D ( 'NONE', #208, #228, #88 ) ;
#15 = ORIENTED_EDGE ( 'NONE', *, *, #76, .F. ) ;
#16 = ORIENTED_EDGE ( 'NONE', *, *, #32, .F. ) ;
#17 = CARTESIAN_POINT ( 'NONE',  ( -2.000000000000000000, 0.000000000000000000, 0.000000000000000000 ) ) ;
#18 = FACE_OUTER_BOUND ( 'NONE', #41, .T. ) ;
#19 = AXIS2_PLACEMENT_3D ( 'NONE', #139, #24, #144 ) ;
#20 = PERSON ( 'NEURÈENÝ', 'NEURÈENÝ', 'NEURÈENÝ', ('NEURÈENÝ'), ('NEURÈENÝ'), ('NEURÈENÝ') ) ;
#21 = CARTESIAN_POINT ( 'NONE',  ( 0.000000000000000000, 0.000000000000000000, 2.000000000000000000 ) ) ;
#22 = CARTESIAN_POINT ( 'NONE',  ( 0.000000000000000000, 0.000000000000000000, 2.000000000000000000 ) ) ;
#23 = ADVANCED_FACE ( 'NONE', ( #44, #60 ), #197, .T. ) ;
#24 = DIRECTION ( 'NONE',  ( 0.000000000000000000, 0.000000000000000000, 1.000000000000000000 ) ) ;
#25 = CARTESIAN_POINT ( 'NONE',  ( 1.000000000000000000, 1.224646799147353207E-16, 2.000000000000000000 ) ) ;
#26 =( NAMED_UNIT ( * ) SI_UNIT ( $, .STERADIAN. ) SOLID_ANGLE_UNIT ( ) );
#27 = CIRCLE ( 'NONE', #11, 1.000000000000000000 ) ;
#28 = PERSON_AND_ORGANIZATION ( #20, #61 ) ;
#29 = APPROVAL_DATE_TIME ( #152, #45 ) ;
#30 = ADVANCED_FACE ( 'NONE', ( #18 ), #42, .T. ) ;
#31 = PERSON_AND_ORGANIZATION_ROLE ( 'design_supplier' ) ;
#32 = EDGE_CURVE ( 'NONE', #254, #183, #230, .T. ) ;
#33 = COORDINATED_UNIVERSAL_TIME_OFFSET ( 1, 0, .AHEAD. ) ;
#34 = VERTEX_POINT ( 'NONE', #235 ) ;
#35 = DATE_AND_TIME ( #240, #171 ) ;
#36 = APPROVAL_PERSON_ORGANIZATION ( #132, #249, #250 ) ;
#37 = DIRECTION ( 'NONE',  ( 0.000000000000000000, 0.000000000000000000, 1.000000000000000000 ) ) ;
#38 = PRODUCT_RELATED_PRODUCT_CATEGORY ( 'detail', '', ( #251 ) ) ;
#39 = DIRECTION ( 'NONE',  ( -0.000000000000000000, -0.000000000000000000, -1.000000000000000000 ) ) ;
#40 = AXIS2_PLACEMENT_3D ( 'NONE', #233, #130, #150 ) ;
#41 = EDGE_LOOP ( 'NONE', ( #46, #174 ) ) ;
#42 = PLANE ( 'NONE',  #237 ) ;
#43 = EDGE_LOOP ( 'NONE', ( #79, #181, #117, #168 ) ) ;
#44 = FACE_BOUND ( 'NONE', #99, .T. ) ;
#45 = APPROVAL ( #89, 'NEURÈENÝ' ) ;
#46 = ORIENTED_EDGE ( 'NONE', *, *, #229, .T. ) ;
#47 = CARTESIAN_POINT ( 'NONE',  ( 1.000000000000000000, 1.224646799147353207E-16, 102.0000000000000142 ) ) ;
#48 = EDGE_CURVE ( 'NONE', #82, #234, #185, .T. ) ;
#49 = LINE ( 'NONE', #210, #128 ) ;
#50 = DIRECTION ( 'NONE',  ( 0.000000000000000000, 0.000000000000000000, 1.000000000000000000 ) ) ;
#51 = AXIS2_PLACEMENT_3D ( 'NONE', #221, #100, #98 ) ;
#52 = CC_DESIGN_PERSON_AND_ORGANIZATION_ASSIGNMENT ( #28, #189, ( #251 ) ) ;
#53 = CALENDAR_DATE ( 2022, 30, 6 ) ;
#54 = DESIGN_CONTEXT ( 'detailed design', #75, 'design' ) ;
#55 = DATE_AND_TIME ( #53, #191 ) ;
#56 = ORIENTED_EDGE ( 'NONE', *, *, #141, .F. ) ;
#57 = VERTEX_POINT ( 'NONE', #205 ) ;
#58 = FACE_OUTER_BOUND ( 'NONE', #124, .T. ) ;
#59 = DIRECTION ( 'NONE',  ( -0.000000000000000000, -0.000000000000000000, -1.000000000000000000 ) ) ;
#60 = FACE_OUTER_BOUND ( 'NONE', #94, .T. ) ;
#61 = ORGANIZATION ( 'NEURÈENÝ', 'NEURÈENÝ', '' ) ;
#62 = CC_DESIGN_PERSON_AND_ORGANIZATION_ASSIGNMENT ( #194, #31, ( #188 ) ) ;
#63 = ORIENTED_EDGE ( 'NONE', *, *, #105, .F. ) ;
#64 = CARTESIAN_POINT ( 'NONE',  ( -1.000000000000000000, 0.000000000000000000, 102.0000000000000142 ) ) ;
#65 = EDGE_CURVE ( 'NONE', #34, #183, #218, .T. ) ;
#66 = FACE_OUTER_BOUND ( 'NONE', #165, .T. ) ;
#67 = CIRCLE ( 'NONE', #157, 1.000000000000000000 ) ;
#68 = CARTESIAN_POINT ( 'NONE',  ( 0.000000000000000000, 0.000000000000000000, 0.000000000000000000 ) ) ;
#69 = AXIS2_PLACEMENT_3D ( 'NONE', #21, #178, #80 ) ;
#70 = APPLICATION_PROTOCOL_DEFINITION ( 'international standard', 'config_control_design', 1994, #147 ) ;
#71 = ADVANCED_FACE ( 'NONE', ( #199 ), #224, .T. ) ;
#72 = SECURITY_CLASSIFICATION ( '', '', #113 ) ;
#73 = APPROVAL_ROLE ( '' ) ;
#74 = ORIENTED_EDGE ( 'NONE', *, *, #159, .F. ) ;
#75 = APPLICATION_CONTEXT ( 'configuration controlled 3d designs of mechanical parts and assemblies' ) ;
#76 = EDGE_CURVE ( 'NONE', #215, #115, #121, .T. ) ;
#77 = DATE_TIME_ROLE ( 'classification_date' ) ;
#78 = AXIS2_PLACEMENT_3D ( 'NONE', #166, #86, #164 ) ;
#79 = ORIENTED_EDGE ( 'NONE', *, *, #212, .F. ) ;
#80 = DIRECTION ( 'NONE',  ( 1.000000000000000000, 0.000000000000000000, 0.000000000000000000 ) ) ;
#81 = DIRECTION ( 'NONE',  ( 0.000000000000000000, 0.000000000000000000, 1.000000000000000000 ) ) ;
#82 = VERTEX_POINT ( 'NONE', #195 ) ;
#83 = CARTESIAN_POINT ( 'NONE',  ( 0.000000000000000000, 0.000000000000000000, 2.000000000000000000 ) ) ;
#84 = CARTESIAN_POINT ( 'NONE',  ( 0.000000000000000000, 0.000000000000000000, 2.000000000000000000 ) ) ;
#85 = ORIENTED_EDGE ( 'NONE', *, *, #201, .F. ) ;
#86 = DIRECTION ( 'NONE',  ( -0.000000000000000000, -0.000000000000000000, -1.000000000000000000 ) ) ;
#87 = LINE ( 'NONE', #47, #107 ) ;
#88 = DIRECTION ( 'NONE',  ( 1.000000000000000000, 0.000000000000000000, -0.000000000000000000 ) ) ;
#89 = APPROVAL_STATUS ( 'not_yet_approved' ) ;
#90 = DATE_TIME_ROLE ( 'creation_date' ) ;
#91 = PRODUCT_DEFINITION ( 'NEZNÁMÝ', '', #188, #54 ) ;
#92 = AXIS2_PLACEMENT_3D ( 'NONE', #22, #236, #222 ) ;
#93 = ORIENTED_EDGE ( 'NONE', *, *, #229, .F. ) ;
#94 = EDGE_LOOP ( 'NONE', ( #217, #158 ) ) ;
#95 = CC_DESIGN_PERSON_AND_ORGANIZATION_ASSIGNMENT ( #190, #206, ( #91 ) ) ;
#96 = FACE_OUTER_BOUND ( 'NONE', #102, .T. ) ;
#97 = CARTESIAN_POINT ( 'NONE',  ( -1.000000000000000000, 0.000000000000000000, 2.000000000000000000 ) ) ;
#98 = DIRECTION ( 'NONE',  ( 1.000000000000000000, 0.000000000000000000, 0.000000000000000000 ) ) ;
#99 = EDGE_LOOP ( 'NONE', ( #202, #16 ) ) ;
#100 = DIRECTION ( 'NONE',  ( 0.000000000000000000, 0.000000000000000000, 1.000000000000000000 ) ) ;
#101 = MANIFOLD_SOLID_BREP ( 'Pøidat vysunutím3', #200 ) ;
#102 = EDGE_LOOP ( 'NONE', ( #85, #93, #155, #238 ) ) ;
#103 = CARTESIAN_POINT ( 'NONE',  ( 0.000000000000000000, 0.000000000000000000, 2.000000000000000000 ) ) ;
#104 = COORDINATED_UNIVERSAL_TIME_OFFSET ( 1, 0, .AHEAD. ) ;
#105 = EDGE_CURVE ( 'NONE', #115, #215, #244, .T. ) ;
#106 = CARTESIAN_POINT ( 'NONE',  ( 0.000000000000000000, 0.000000000000000000, 102.0000000000000142 ) ) ;
#107 = VECTOR ( 'NONE', #242, 1000.000000000000000 ) ;
#108 = CIRCLE ( 'NONE', #216, 1.000000000000000000 ) ;
#109 = CC_DESIGN_PERSON_AND_ORGANIZATION_ASSIGNMENT ( #231, #134, ( #188 ) ) ;
#110 = APPLICATION_PROTOCOL_DEFINITION ( 'international standard', 'config_control_design', 1994, #75 ) ;
#111 = SHAPE_DEFINITION_REPRESENTATION ( #192, #177 ) ;
#112 = CIRCLE ( 'NONE', #92, 2.000000000000000000 ) ;
#113 = SECURITY_CLASSIFICATION_LEVEL ( 'unclassified' ) ;
#114 = ADVANCED_FACE ( 'NONE', ( #182 ), #5, .T. ) ;
#115 = VERTEX_POINT ( 'NONE', #17 ) ;
#116 = CARTESIAN_POINT ( 'NONE',  ( 0.000000000000000000, 0.000000000000000000, 2.000000000000000000 ) ) ;
#117 = ORIENTED_EDGE ( 'NONE', *, *, #141, .T. ) ;
#118 = EDGE_CURVE ( 'NONE', #57, #34, #108, .T. ) ;
#119 = CARTESIAN_POINT ( 'NONE',  ( 0.000000000000000000, 0.000000000000000000, 102.0000000000000142 ) ) ;
#120 = APPROVAL_PERSON_ORGANIZATION ( #12, #45, #172 ) ;
#121 = CIRCLE ( 'NONE', #51, 2.000000000000000000 ) ;
#122 = APPROVAL ( #248, 'NEURÈENÝ' ) ;
#123 = DIRECTION ( 'NONE',  ( -1.000000000000000000, 0.000000000000000000, 0.000000000000000000 ) ) ;
#124 = EDGE_LOOP ( 'NONE', ( #74, #145, #204, #56 ) ) ;
#125 = DIRECTION ( 'NONE',  ( 1.000000000000000000, 0.000000000000000000, 0.000000000000000000 ) ) ;
#126 = EDGE_LOOP ( 'NONE', ( #241, #167, #6, #163 ) ) ;
#127 = CALENDAR_DATE ( 2022, 30, 6 ) ;
#128 = VECTOR ( 'NONE', #154, 1000.000000000000000 ) ;
#129 = PLANE ( 'NONE',  #14 ) ;
#130 = DIRECTION ( 'NONE',  ( -0.000000000000000000, -0.000000000000000000, -1.000000000000000000 ) ) ;
#131 = MECHANICAL_CONTEXT ( 'NONE', #147, 'mechanical' ) ;
#132 = PERSON_AND_ORGANIZATION ( #20, #61 ) ;
#133 = APPROVAL_DATE_TIME ( #35, #122 ) ;
#134 = PERSON_AND_ORGANIZATION_ROLE ( 'creator' ) ;
#135 = VECTOR ( 'NONE', #219, 1000.000000000000000 ) ;
#136 = PERSON_AND_ORGANIZATION_ROLE ( 'classification_officer' ) ;
#137 = CC_DESIGN_DATE_AND_TIME_ASSIGNMENT ( #186, #90, ( #91 ) ) ;
#138 = LOCAL_TIME ( 22, 25, 25.00000000000000000, #247 ) ;
#139 = CARTESIAN_POINT ( 'NONE',  ( 0.000000000000000000, 0.000000000000000000, 0.000000000000000000 ) ) ;
#140 = DIRECTION ( 'NONE',  ( 1.000000000000000000, 0.000000000000000000, -0.000000000000000000 ) ) ;
#141 = EDGE_CURVE ( 'NONE', #82, #115, #180, .T. ) ;
#142 = DIRECTION ( 'NONE',  ( 0.000000000000000000, 0.000000000000000000, 1.000000000000000000 ) ) ;
#143 = VECTOR ( 'NONE', #59, 1000.000000000000000 ) ;
#144 = DIRECTION ( 'NONE',  ( 1.000000000000000000, 0.000000000000000000, 0.000000000000000000 ) ) ;
#145 = ORIENTED_EDGE ( 'NONE', *, *, #212, .T. ) ;
#146 = CARTESIAN_POINT ( 'NONE',  ( 0.000000000000000000, 0.000000000000000000, 102.0000000000000142 ) ) ;
#147 = APPLICATION_CONTEXT ( 'configuration controlled 3d designs of mechanical parts and assemblies' ) ;
#148 = DIRECTION ( 'NONE',  ( 1.000000000000000000, 0.000000000000000000, 0.000000000000000000 ) ) ;
#149 = AXIS2_PLACEMENT_3D ( 'NONE', #84, #142, #125 ) ;
#150 = DIRECTION ( 'NONE',  ( -1.000000000000000000, 0.000000000000000000, 0.000000000000000000 ) ) ;
#151 = CC_DESIGN_DATE_AND_TIME_ASSIGNMENT ( #156, #77, ( #72 ) ) ;
#152 = DATE_AND_TIME ( #127, #138 ) ;
#153 = CC_DESIGN_APPROVAL ( #122, ( #188 ) ) ;
#154 = DIRECTION ( 'NONE',  ( -0.000000000000000000, -0.000000000000000000, -1.000000000000000000 ) ) ;
#155 = ORIENTED_EDGE ( 'NONE', *, *, #65, .T. ) ;
#156 = DATE_AND_TIME ( #213, #1 ) ;
#157 = AXIS2_PLACEMENT_3D ( 'NONE', #106, #10, #225 ) ;
#158 = ORIENTED_EDGE ( 'NONE', *, *, #159, .T. ) ;
#159 = EDGE_CURVE ( 'NONE', #234, #82, #112, .T. ) ;
#160 =( GEOMETRIC_REPRESENTATION_CONTEXT ( 3 ) GLOBAL_UNCERTAINTY_ASSIGNED_CONTEXT ( ( #223 ) ) GLOBAL_UNIT_ASSIGNED_CONTEXT ( ( #227, #9, #26 ) ) REPRESENTATION_CONTEXT ( 'NONE', 'WORKASPACE' ) );
#161 = DIRECTION ( 'NONE',  ( -0.000000000000000000, -0.000000000000000000, -1.000000000000000000 ) ) ;
#162 = CYLINDRICAL_SURFACE ( 'NONE', #40, 2.000000000000000000 ) ;
#163 = ORIENTED_EDGE ( 'NONE', *, *, #65, .F. ) ;
#164 = DIRECTION ( 'NONE',  ( -1.000000000000000000, 0.000000000000000000, 0.000000000000000000 ) ) ;
#165 = EDGE_LOOP ( 'NONE', ( #63, #15 ) ) ;
#166 = CARTESIAN_POINT ( 'NONE',  ( 0.000000000000000000, 0.000000000000000000, 102.0000000000000142 ) ) ;
#167 = ORIENTED_EDGE ( 'NONE', *, *, #201, .T. ) ;
#168 = ORIENTED_EDGE ( 'NONE', *, *, #105, .T. ) ;
#169 = COORDINATED_UNIVERSAL_TIME_OFFSET ( 1, 0, .AHEAD. ) ;
#170 = EDGE_CURVE ( 'NONE', #183, #254, #27, .T. ) ;
#171 = LOCAL_TIME ( 22, 25, 25.00000000000000000, #169 ) ;
#172 = APPROVAL_ROLE ( '' ) ;
#173 = PERSON_AND_ORGANIZATION ( #20, #61 ) ;
#174 = ORIENTED_EDGE ( 'NONE', *, *, #118, .T. ) ;
#175 = APPROVAL_DATE_TIME ( #55, #249 ) ;
#176 = AXIS2_PLACEMENT_3D ( 'NONE', #68, #50, #148 ) ;
#177 = ADVANCED_BREP_SHAPE_REPRESENTATION ( 'f8cc', ( #101, #176 ), #160 ) ;
#178 = DIRECTION ( 'NONE',  ( 0.000000000000000000, 0.000000000000000000, 1.000000000000000000 ) ) ;
#179 = CYLINDRICAL_SURFACE ( 'NONE', #78, 1.000000000000000000 ) ;
#180 = LINE ( 'NONE', #203, #143 ) ;
#181 = ORIENTED_EDGE ( 'NONE', *, *, #48, .F. ) ;
#182 = FACE_OUTER_BOUND ( 'NONE', #126, .T. ) ;
#183 = VERTEX_POINT ( 'NONE', #97 ) ;
#184 = DIRECTION ( 'NONE',  ( 0.000000000000000000, 0.000000000000000000, 1.000000000000000000 ) ) ;
#185 = CIRCLE ( 'NONE', #149, 2.000000000000000000 ) ;
#186 = DATE_AND_TIME ( #13, #207 ) ;
#187 = CARTESIAN_POINT ( 'NONE',  ( 2.000000000000000000, 2.449293598294706414E-16, 2.000000000000000000 ) ) ;
#188 = PRODUCT_DEFINITION_FORMATION_WITH_SPECIFIED_SOURCE ( 'LIBOVOLNÝ', '', #251, .NOT_KNOWN. ) ;
#189 = PERSON_AND_ORGANIZATION_ROLE ( 'design_owner' ) ;
#190 = PERSON_AND_ORGANIZATION ( #20, #61 ) ;
#191 = LOCAL_TIME ( 22, 25, 25.00000000000000000, #33 ) ;
#192 = PRODUCT_DEFINITION_SHAPE ( 'NONE', 'NONE',  #91 ) ;
#193 = PERSON_AND_ORGANIZATION ( #20, #61 ) ;
#194 = PERSON_AND_ORGANIZATION ( #20, #61 ) ;
#195 = CARTESIAN_POINT ( 'NONE',  ( -2.000000000000000000, 0.000000000000000000, 2.000000000000000000 ) ) ;
#196 = ADVANCED_FACE ( 'NONE', ( #58 ), #162, .T. ) ;
#197 = PLANE ( 'NONE',  #226 ) ;
#198 = CC_DESIGN_APPROVAL ( #45, ( #91 ) ) ;
#199 = FACE_OUTER_BOUND ( 'NONE', #43, .T. ) ;
#200 = CLOSED_SHELL ( 'NONE', ( #114, #196, #71, #23, #246, #3, #30 ) ) ;
#201 = EDGE_CURVE ( 'NONE', #57, #254, #87, .T. ) ;
#202 = ORIENTED_EDGE ( 'NONE', *, *, #170, .F. ) ;
#203 = CARTESIAN_POINT ( 'NONE',  ( -2.000000000000000000, 0.000000000000000000, 2.000000000000000000 ) ) ;
#204 = ORIENTED_EDGE ( 'NONE', *, *, #76, .T. ) ;
#205 = CARTESIAN_POINT ( 'NONE',  ( 1.000000000000000000, 1.224646799147353207E-16, 102.0000000000000142 ) ) ;
#206 = PERSON_AND_ORGANIZATION_ROLE ( 'creator' ) ;
#207 = LOCAL_TIME ( 22, 25, 25.00000000000000000, #104 ) ;
#208 = CARTESIAN_POINT ( 'NONE',  ( 0.000000000000000000, 0.000000000000000000, 0.000000000000000000 ) ) ;
#209 = CC_DESIGN_SECURITY_CLASSIFICATION ( #72, ( #188 ) ) ;
#210 = CARTESIAN_POINT ( 'NONE',  ( 2.000000000000000000, 2.449293598294706414E-16, 2.000000000000000000 ) ) ;
#211 = APPROVAL_STATUS ( 'not_yet_approved' ) ;
#212 = EDGE_CURVE ( 'NONE', #234, #215, #49, .T. ) ;
#213 = CALENDAR_DATE ( 2022, 30, 6 ) ;
#214 = COORDINATED_UNIVERSAL_TIME_OFFSET ( 1, 0, .AHEAD. ) ;
#215 = VERTEX_POINT ( 'NONE', #245 ) ;
#216 = AXIS2_PLACEMENT_3D ( 'NONE', #4, #255, #7 ) ;
#217 = ORIENTED_EDGE ( 'NONE', *, *, #48, .T. ) ;
#218 = LINE ( 'NONE', #64, #135 ) ;
#219 = DIRECTION ( 'NONE',  ( -0.000000000000000000, -0.000000000000000000, -1.000000000000000000 ) ) ;
#220 = APPROVAL_PERSON_ORGANIZATION ( #173, #122, #73 ) ;
#221 = CARTESIAN_POINT ( 'NONE',  ( 0.000000000000000000, 0.000000000000000000, 0.000000000000000000 ) ) ;
#222 = DIRECTION ( 'NONE',  ( 1.000000000000000000, 0.000000000000000000, 0.000000000000000000 ) ) ;
#223 = UNCERTAINTY_MEASURE_WITH_UNIT (LENGTH_MEASURE( 1.000000000000000082E-05 ), #227, 'distance_accuracy_value', 'NONE');
#224 = CYLINDRICAL_SURFACE ( 'NONE', #243, 2.000000000000000000 ) ;
#225 = DIRECTION ( 'NONE',  ( 1.000000000000000000, 0.000000000000000000, 0.000000000000000000 ) ) ;
#226 = AXIS2_PLACEMENT_3D ( 'NONE', #83, #37, #140 ) ;
#227 =( LENGTH_UNIT ( ) NAMED_UNIT ( * ) SI_UNIT ( .MILLI., .METRE. ) );
#228 = DIRECTION ( 'NONE',  ( 0.000000000000000000, 0.000000000000000000, 1.000000000000000000 ) ) ;
#229 = EDGE_CURVE ( 'NONE', #34, #57, #67, .T. ) ;
#230 = CIRCLE ( 'NONE', #69, 1.000000000000000000 ) ;
#231 = PERSON_AND_ORGANIZATION ( #20, #61 ) ;
#232 = DIRECTION ( 'NONE',  ( 1.000000000000000000, 0.000000000000000000, 0.000000000000000000 ) ) ;
#233 = CARTESIAN_POINT ( 'NONE',  ( 0.000000000000000000, 0.000000000000000000, 2.000000000000000000 ) ) ;
#234 = VERTEX_POINT ( 'NONE', #187 ) ;
#235 = CARTESIAN_POINT ( 'NONE',  ( -1.000000000000000000, 0.000000000000000000, 102.0000000000000142 ) ) ;
#236 = DIRECTION ( 'NONE',  ( 0.000000000000000000, 0.000000000000000000, 1.000000000000000000 ) ) ;
#237 = AXIS2_PLACEMENT_3D ( 'NONE', #146, #184, #239 ) ;
#238 = ORIENTED_EDGE ( 'NONE', *, *, #170, .T. ) ;
#239 = DIRECTION ( 'NONE',  ( 1.000000000000000000, 0.000000000000000000, -0.000000000000000000 ) ) ;
#240 = CALENDAR_DATE ( 2022, 30, 6 ) ;
#241 = ORIENTED_EDGE ( 'NONE', *, *, #118, .F. ) ;
#242 = DIRECTION ( 'NONE',  ( -0.000000000000000000, -0.000000000000000000, -1.000000000000000000 ) ) ;
#243 = AXIS2_PLACEMENT_3D ( 'NONE', #116, #39, #123 ) ;
#244 = CIRCLE ( 'NONE', #19, 2.000000000000000000 ) ;
#245 = CARTESIAN_POINT ( 'NONE',  ( 2.000000000000000000, 2.449293598294706414E-16, 0.000000000000000000 ) ) ;
#246 = ADVANCED_FACE ( 'NONE', ( #66 ), #129, .F. ) ;
#247 = COORDINATED_UNIVERSAL_TIME_OFFSET ( 1, 0, .AHEAD. ) ;
#248 = APPROVAL_STATUS ( 'not_yet_approved' ) ;
#249 = APPROVAL ( #211, 'NEURÈENÝ' ) ;
#250 = APPROVAL_ROLE ( '' ) ;
#251 = PRODUCT ( 'f8cc', 'f8cc', '', ( #131 ) ) ;
#252 = CC_DESIGN_APPROVAL ( #249, ( #72 ) ) ;
#253 = AXIS2_PLACEMENT_3D ( 'NONE', #119, #161, #2 ) ;
#254 = VERTEX_POINT ( 'NONE', #25 ) ;
#255 = DIRECTION ( 'NONE',  ( 0.000000000000000000, 0.000000000000000000, 1.000000000000000000 ) ) ;
ENDSEC;
END-ISO-10303-21;
