ISO-10303-21;
HEADER;
FILE_DESCRIPTION (( 'STEP AP203' ),
    '1' );
FILE_NAME ('4286.STEP',
    '2023-02-12T12:02:06',
    ( '' ),
    ( '' ),
    'SwSTEP 2.0',
    'SolidWorks 2019',
    '' );
FILE_SCHEMA (( 'CONFIG_CONTROL_DESIGN' ));
ENDSEC;

DATA;
#1 = VERTEX_POINT ( 'NONE', #94 ) ;
#2 = EDGE_CURVE ( 'NONE', #60, #156, #187, .T. ) ;
#3 = LOCAL_TIME ( 13, 2, 6.000000000000000000, #126 ) ;
#4 = AXIS2_PLACEMENT_3D ( 'NONE', #101, #212, #232 ) ;
#5 = CARTESIAN_POINT ( 'NONE',  ( 0.000000000000000000, 0.000000000000000000, 3.000000000000000000 ) ) ;
#6 = DIRECTION ( 'NONE',  ( 1.000000000000000000, 0.000000000000000000, 0.000000000000000000 ) ) ;
#7 = ORIENTED_EDGE ( 'NONE', *, *, #95, .T. ) ;
#8 = AXIS2_PLACEMENT_3D ( 'NONE', #5, #173, #6 ) ;
#9 = CARTESIAN_POINT ( 'NONE',  ( 0.000000000000000000, 0.000000000000000000, 0.000000000000000000 ) ) ;
#10 = CC_DESIGN_SECURITY_CLASSIFICATION ( #210, ( #34 ) ) ;
#11 = DESIGN_CONTEXT ( 'detailed design', #58, 'design' ) ;
#12 = CARTESIAN_POINT ( 'NONE',  ( 0.000000000000000000, 0.000000000000000000, 3.000000000000000000 ) ) ;
#13 = CARTESIAN_POINT ( 'NONE',  ( 0.000000000000000000, 0.000000000000000000, 315.0000000000000000 ) ) ;
#14 = CLOSED_SHELL ( 'NONE', ( #161, #147, #197, #22, #110, #222, #191 ) ) ;
#15 = COORDINATED_UNIVERSAL_TIME_OFFSET ( 1, 0, .AHEAD. ) ;
#16 = LOCAL_TIME ( 13, 2, 6.000000000000000000, #15 ) ;
#17 = MANIFOLD_SOLID_BREP ( 'Pøidat vysunutím3', #14 ) ;
#18 = EDGE_LOOP ( 'NONE', ( #255, #160, #40, #141 ) ) ;
#19 =( NAMED_UNIT ( * ) PLANE_ANGLE_UNIT ( ) SI_UNIT ( $, .RADIAN. ) );
#20 = EDGE_CURVE ( 'NONE', #108, #1, #183, .T. ) ;
#21 =( GEOMETRIC_REPRESENTATION_CONTEXT ( 3 ) GLOBAL_UNCERTAINTY_ASSIGNED_CONTEXT ( ( #50 ) ) GLOBAL_UNIT_ASSIGNED_CONTEXT ( ( #202, #19, #177 ) ) REPRESENTATION_CONTEXT ( 'NONE', 'WORKASPACE' ) );
#22 = ADVANCED_FACE ( 'NONE', ( #48, #206 ), #132, .T. ) ;
#23 = DIRECTION ( 'NONE',  ( 0.000000000000000000, 0.000000000000000000, 1.000000000000000000 ) ) ;
#24 = CALENDAR_DATE ( 2023, 12, 2 ) ;
#25 = DIRECTION ( 'NONE',  ( 1.000000000000000000, 0.000000000000000000, 0.000000000000000000 ) ) ;
#26 = CARTESIAN_POINT ( 'NONE',  ( -4.000000000000000000, 0.000000000000000000, 3.000000000000000000 ) ) ;
#27 = CC_DESIGN_PERSON_AND_ORGANIZATION_ASSIGNMENT ( #235, #142, ( #34 ) ) ;
#28 = VERTEX_POINT ( 'NONE', #71 ) ;
#29 = DIRECTION ( 'NONE',  ( -0.000000000000000000, -0.000000000000000000, -1.000000000000000000 ) ) ;
#30 = DIRECTION ( 'NONE',  ( -1.000000000000000000, 0.000000000000000000, 0.000000000000000000 ) ) ;
#31 = CC_DESIGN_PERSON_AND_ORGANIZATION_ASSIGNMENT ( #139, #145, ( #99 ) ) ;
#32 = CALENDAR_DATE ( 2023, 12, 2 ) ;
#33 = CARTESIAN_POINT ( 'NONE',  ( 0.000000000000000000, 0.000000000000000000, 315.0000000000000000 ) ) ;
#34 = PRODUCT_DEFINITION_FORMATION_WITH_SPECIFIED_SOURCE ( 'LIBOVOLNÝ', '', #130, .NOT_KNOWN. ) ;
#35 = CARTESIAN_POINT ( 'NONE',  ( 0.000000000000000000, 0.000000000000000000, 315.0000000000000000 ) ) ;
#36 = EDGE_CURVE ( 'NONE', #28, #182, #39, .T. ) ;
#37 = EDGE_LOOP ( 'NONE', ( #62, #7, #234, #239 ) ) ;
#38 = DIRECTION ( 'NONE',  ( 1.000000000000000000, 0.000000000000000000, 0.000000000000000000 ) ) ;
#39 = CIRCLE ( 'NONE', #61, 4.000000000000000000 ) ;
#40 = ORIENTED_EDGE ( 'NONE', *, *, #119, .T. ) ;
#41 = EDGE_LOOP ( 'NONE', ( #118, #116, #188, #219 ) ) ;
#42 = APPROVAL_STATUS ( 'not_yet_approved' ) ;
#43 = CARTESIAN_POINT ( 'NONE',  ( -4.000000000000000000, 0.000000000000000000, 3.000000000000000000 ) ) ;
#44 = APPROVAL_ROLE ( '' ) ;
#45 = CARTESIAN_POINT ( 'NONE',  ( 0.000000000000000000, 0.000000000000000000, 3.000000000000000000 ) ) ;
#46 = APPROVAL_DATE_TIME ( #216, #236 ) ;
#47 = AXIS2_PLACEMENT_3D ( 'NONE', #54, #113, #38 ) ;
#48 = FACE_BOUND ( 'NONE', #213, .T. ) ;
#49 = ORIENTED_EDGE ( 'NONE', *, *, #119, .F. ) ;
#50 = UNCERTAINTY_MEASURE_WITH_UNIT (LENGTH_MEASURE( 1.000000000000000082E-05 ), #202, 'distance_accuracy_value', 'NONE');
#51 = DIRECTION ( 'NONE',  ( -0.000000000000000000, -0.000000000000000000, -1.000000000000000000 ) ) ;
#52 = ORGANIZATION ( 'NEURÈENÝ', 'NEURÈENÝ', '' ) ;
#53 = EDGE_CURVE ( 'NONE', #156, #60, #193, .T. ) ;
#54 = CARTESIAN_POINT ( 'NONE',  ( 0.000000000000000000, 0.000000000000000000, 3.000000000000000000 ) ) ;
#55 = APPROVAL_DATE_TIME ( #253, #218 ) ;
#56 = EDGE_CURVE ( 'NONE', #108, #244, #229, .T. ) ;
#57 = CARTESIAN_POINT ( 'NONE',  ( 0.000000000000000000, 0.000000000000000000, 3.000000000000000000 ) ) ;
#58 = APPLICATION_CONTEXT ( 'configuration controlled 3d designs of mechanical parts and assemblies' ) ;
#59 = APPLICATION_PROTOCOL_DEFINITION ( 'international standard', 'config_control_design', 1994, #77 ) ;
#60 = VERTEX_POINT ( 'NONE', #246 ) ;
#61 = AXIS2_PLACEMENT_3D ( 'NONE', #66, #228, #25 ) ;
#62 = ORIENTED_EDGE ( 'NONE', *, *, #2, .F. ) ;
#63 = PRODUCT_RELATED_PRODUCT_CATEGORY ( 'detail', '', ( #130 ) ) ;
#64 = PERSON_AND_ORGANIZATION_ROLE ( 'classification_officer' ) ;
#65 = AXIS2_PLACEMENT_3D ( 'NONE', #33, #80, #214 ) ;
#66 = CARTESIAN_POINT ( 'NONE',  ( 0.000000000000000000, 0.000000000000000000, 0.000000000000000000 ) ) ;
#67 = COORDINATED_UNIVERSAL_TIME_OFFSET ( 1, 0, .AHEAD. ) ;
#68 = CIRCLE ( 'NONE', #140, 4.000000000000000000 ) ;
#69 = DIRECTION ( 'NONE',  ( 0.000000000000000000, 0.000000000000000000, 1.000000000000000000 ) ) ;
#70 = LOCAL_TIME ( 13, 2, 6.000000000000000000, #67 ) ;
#71 = CARTESIAN_POINT ( 'NONE',  ( -4.000000000000000000, 0.000000000000000000, 0.000000000000000000 ) ) ;
#72 = CARTESIAN_POINT ( 'NONE',  ( 2.000000000000000000, 2.449293598294706414E-16, 315.0000000000000000 ) ) ;
#73 = APPLICATION_PROTOCOL_DEFINITION ( 'international standard', 'config_control_design', 1994, #58 ) ;
#74 = ADVANCED_BREP_SHAPE_REPRESENTATION ( '4286', ( #17, #4 ), #21 ) ;
#75 = DIRECTION ( 'NONE',  ( -0.000000000000000000, -0.000000000000000000, -1.000000000000000000 ) ) ;
#76 = LOCAL_TIME ( 13, 2, 6.000000000000000000, #105 ) ;
#77 = APPLICATION_CONTEXT ( 'configuration controlled 3d designs of mechanical parts and assemblies' ) ;
#78 = CC_DESIGN_PERSON_AND_ORGANIZATION_ASSIGNMENT ( #186, #168, ( #34 ) ) ;
#79 = AXIS2_PLACEMENT_3D ( 'NONE', #209, #69, #106 ) ;
#80 = DIRECTION ( 'NONE',  ( 0.000000000000000000, 0.000000000000000000, 1.000000000000000000 ) ) ;
#81 = DIRECTION ( 'NONE',  ( -0.000000000000000000, -0.000000000000000000, -1.000000000000000000 ) ) ;
#82 = ORIENTED_EDGE ( 'NONE', *, *, #2, .T. ) ;
#83 = AXIS2_PLACEMENT_3D ( 'NONE', #45, #192, #175 ) ;
#84 = CYLINDRICAL_SURFACE ( 'NONE', #242, 2.000000000000000000 ) ;
#85 = DATE_AND_TIME ( #24, #70 ) ;
#86 = COORDINATED_UNIVERSAL_TIME_OFFSET ( 1, 0, .AHEAD. ) ;
#87 = ORIENTED_EDGE ( 'NONE', *, *, #53, .T. ) ;
#88 = DATE_AND_TIME ( #237, #3 ) ;
#89 = EDGE_LOOP ( 'NONE', ( #87, #82 ) ) ;
#90 = CC_DESIGN_PERSON_AND_ORGANIZATION_ASSIGNMENT ( #225, #64, ( #210 ) ) ;
#91 = DATE_TIME_ROLE ( 'classification_date' ) ;
#92 = CARTESIAN_POINT ( 'NONE',  ( 4.000000000000000000, 4.898587196589412829E-16, 3.000000000000000000 ) ) ;
#93 = CARTESIAN_POINT ( 'NONE',  ( -2.000000000000000000, 0.000000000000000000, 315.0000000000000000 ) ) ;
#94 = CARTESIAN_POINT ( 'NONE',  ( 2.000000000000000000, 2.449293598294706414E-16, 315.0000000000000000 ) ) ;
#95 = EDGE_CURVE ( 'NONE', #60, #182, #107, .T. ) ;
#96 = DIRECTION ( 'NONE',  ( -0.000000000000000000, -0.000000000000000000, -1.000000000000000000 ) ) ;
#97 = FACE_OUTER_BOUND ( 'NONE', #243, .T. ) ;
#98 = AXIS2_PLACEMENT_3D ( 'NONE', #13, #114, #254 ) ;
#99 = PRODUCT_DEFINITION ( 'NEZNÁMÝ', '', #34, #11 ) ;
#100 = DIRECTION ( 'NONE',  ( -0.000000000000000000, -0.000000000000000000, -1.000000000000000000 ) ) ;
#101 = CARTESIAN_POINT ( 'NONE',  ( 0.000000000000000000, 0.000000000000000000, 0.000000000000000000 ) ) ;
#102 = ORIENTED_EDGE ( 'NONE', *, *, #36, .F. ) ;
#103 = AXIS2_PLACEMENT_3D ( 'NONE', #208, #226, #131 ) ;
#104 = CC_DESIGN_PERSON_AND_ORGANIZATION_ASSIGNMENT ( #203, #251, ( #130 ) ) ;
#105 = COORDINATED_UNIVERSAL_TIME_OFFSET ( 1, 0, .AHEAD. ) ;
#106 = DIRECTION ( 'NONE',  ( 1.000000000000000000, 0.000000000000000000, -0.000000000000000000 ) ) ;
#107 = LINE ( 'NONE', #92, #238 ) ;
#108 = VERTEX_POINT ( 'NONE', #111 ) ;
#109 = ORIENTED_EDGE ( 'NONE', *, *, #20, .T. ) ;
#110 = ADVANCED_FACE ( 'NONE', ( #171 ), #223, .F. ) ;
#111 = CARTESIAN_POINT ( 'NONE',  ( -2.000000000000000000, 0.000000000000000000, 315.0000000000000000 ) ) ;
#112 = APPROVAL_PERSON_ORGANIZATION ( #170, #180, #44 ) ;
#113 = DIRECTION ( 'NONE',  ( 0.000000000000000000, 0.000000000000000000, 1.000000000000000000 ) ) ;
#114 = DIRECTION ( 'NONE',  ( 0.000000000000000000, 0.000000000000000000, 1.000000000000000000 ) ) ;
#115 = EDGE_CURVE ( 'NONE', #182, #28, #68, .T. ) ;
#116 = ORIENTED_EDGE ( 'NONE', *, *, #53, .F. ) ;
#117 = FACE_OUTER_BOUND ( 'NONE', #18, .T. ) ;
#118 = ORIENTED_EDGE ( 'NONE', *, *, #95, .F. ) ;
#119 = EDGE_CURVE ( 'NONE', #201, #244, #125, .T. ) ;
#120 = ORIENTED_EDGE ( 'NONE', *, *, #115, .F. ) ;
#121 = DATE_AND_TIME ( #245, #133 ) ;
#122 = SHAPE_DEFINITION_REPRESENTATION ( #164, #74 ) ;
#123 = EDGE_CURVE ( 'NONE', #1, #201, #190, .T. ) ;
#124 = ORIENTED_EDGE ( 'NONE', *, *, #167, .F. ) ;
#125 = CIRCLE ( 'NONE', #83, 2.000000000000000000 ) ;
#126 = COORDINATED_UNIVERSAL_TIME_OFFSET ( 1, 0, .AHEAD. ) ;
#127 = DIRECTION ( 'NONE',  ( 1.000000000000000000, 0.000000000000000000, 0.000000000000000000 ) ) ;
#128 = APPROVAL_STATUS ( 'not_yet_approved' ) ;
#129 = DIRECTION ( 'NONE',  ( 0.000000000000000000, 0.000000000000000000, 1.000000000000000000 ) ) ;
#130 = PRODUCT ( '4286', '4286', '', ( #134 ) ) ;
#131 = DIRECTION ( 'NONE',  ( 1.000000000000000000, 0.000000000000000000, 0.000000000000000000 ) ) ;
#132 = PLANE ( 'NONE',  #136 ) ;
#133 = LOCAL_TIME ( 13, 2, 6.000000000000000000, #86 ) ;
#134 = MECHANICAL_CONTEXT ( 'NONE', #77, 'mechanical' ) ;
#135 = CC_DESIGN_DATE_AND_TIME_ASSIGNMENT ( #121, #220, ( #99 ) ) ;
#136 = AXIS2_PLACEMENT_3D ( 'NONE', #195, #23, #169 ) ;
#137 = AXIS2_PLACEMENT_3D ( 'NONE', #57, #100, #30 ) ;
#138 = FACE_OUTER_BOUND ( 'NONE', #165, .T. ) ;
#139 = PERSON_AND_ORGANIZATION ( #241, #52 ) ;
#140 = AXIS2_PLACEMENT_3D ( 'NONE', #9, #129, #127 ) ;
#141 = ORIENTED_EDGE ( 'NONE', *, *, #56, .F. ) ;
#142 = PERSON_AND_ORGANIZATION_ROLE ( 'design_supplier' ) ;
#143 = ORIENTED_EDGE ( 'NONE', *, *, #123, .F. ) ;
#144 = ORIENTED_EDGE ( 'NONE', *, *, #56, .T. ) ;
#145 = PERSON_AND_ORGANIZATION_ROLE ( 'creator' ) ;
#146 = DIRECTION ( 'NONE',  ( -0.000000000000000000, -0.000000000000000000, -1.000000000000000000 ) ) ;
#147 = ADVANCED_FACE ( 'NONE', ( #207 ), #196, .T. ) ;
#148 = PERSON_AND_ORGANIZATION ( #241, #52 ) ;
#149 = DIRECTION ( 'NONE',  ( 1.000000000000000000, 0.000000000000000000, 0.000000000000000000 ) ) ;
#150 = VECTOR ( 'NONE', #146, 1000.000000000000000 ) ;
#151 = SECURITY_CLASSIFICATION_LEVEL ( 'unclassified' ) ;
#152 = LINE ( 'NONE', #26, #150 ) ;
#153 = CC_DESIGN_APPROVAL ( #180, ( #34 ) ) ;
#154 = EDGE_CURVE ( 'NONE', #156, #28, #152, .T. ) ;
#155 = DIRECTION ( 'NONE',  ( -0.000000000000000000, -0.000000000000000000, -1.000000000000000000 ) ) ;
#156 = VERTEX_POINT ( 'NONE', #43 ) ;
#157 = CARTESIAN_POINT ( 'NONE',  ( 0.000000000000000000, 0.000000000000000000, 315.0000000000000000 ) ) ;
#158 = APPROVAL_STATUS ( 'not_yet_approved' ) ;
#159 = FACE_OUTER_BOUND ( 'NONE', #41, .T. ) ;
#160 = ORIENTED_EDGE ( 'NONE', *, *, #123, .T. ) ;
#161 = ADVANCED_FACE ( 'NONE', ( #117 ), #230, .T. ) ;
#162 = DIRECTION ( 'NONE',  ( -1.000000000000000000, 0.000000000000000000, 0.000000000000000000 ) ) ;
#163 = CIRCLE ( 'NONE', #65, 2.000000000000000000 ) ;
#164 = PRODUCT_DEFINITION_SHAPE ( 'NONE', 'NONE',  #99 ) ;
#165 = EDGE_LOOP ( 'NONE', ( #109, #249 ) ) ;
#166 = APPROVAL_ROLE ( '' ) ;
#167 = EDGE_CURVE ( 'NONE', #244, #201, #178, .T. ) ;
#168 = PERSON_AND_ORGANIZATION_ROLE ( 'creator' ) ;
#169 = DIRECTION ( 'NONE',  ( 1.000000000000000000, 0.000000000000000000, -0.000000000000000000 ) ) ;
#170 = PERSON_AND_ORGANIZATION ( #241, #52 ) ;
#171 = FACE_OUTER_BOUND ( 'NONE', #217, .T. ) ;
#172 = EDGE_CURVE ( 'NONE', #1, #108, #163, .T. ) ;
#173 = DIRECTION ( 'NONE',  ( 0.000000000000000000, 0.000000000000000000, 1.000000000000000000 ) ) ;
#174 = CC_DESIGN_APPROVAL ( #236, ( #210 ) ) ;
#175 = DIRECTION ( 'NONE',  ( 1.000000000000000000, 0.000000000000000000, 0.000000000000000000 ) ) ;
#176 = DIRECTION ( 'NONE',  ( -1.000000000000000000, 0.000000000000000000, 0.000000000000000000 ) ) ;
#177 =( NAMED_UNIT ( * ) SI_UNIT ( $, .STERADIAN. ) SOLID_ANGLE_UNIT ( ) );
#178 = CIRCLE ( 'NONE', #47, 2.000000000000000000 ) ;
#179 = CARTESIAN_POINT ( 'NONE',  ( -2.000000000000000000, 0.000000000000000000, 3.000000000000000000 ) ) ;
#180 = APPROVAL ( #42, 'NEURÈENÝ' ) ;
#181 = CARTESIAN_POINT ( 'NONE',  ( 2.000000000000000000, 2.449293598294706414E-16, 3.000000000000000000 ) ) ;
#182 = VERTEX_POINT ( 'NONE', #233 ) ;
#183 = CIRCLE ( 'NONE', #103, 2.000000000000000000 ) ;
#184 = PLANE ( 'NONE',  #98 ) ;
#185 = AXIS2_PLACEMENT_3D ( 'NONE', #12, #96, #176 ) ;
#186 = PERSON_AND_ORGANIZATION ( #241, #52 ) ;
#187 = CIRCLE ( 'NONE', #8, 4.000000000000000000 ) ;
#188 = ORIENTED_EDGE ( 'NONE', *, *, #154, .T. ) ;
#189 = APPROVAL_PERSON_ORGANIZATION ( #148, #236, #166 ) ;
#190 = LINE ( 'NONE', #72, #224 ) ;
#191 = ADVANCED_FACE ( 'NONE', ( #138 ), #184, .T. ) ;
#192 = DIRECTION ( 'NONE',  ( 0.000000000000000000, 0.000000000000000000, 1.000000000000000000 ) ) ;
#193 = CIRCLE ( 'NONE', #247, 4.000000000000000000 ) ;
#194 = VECTOR ( 'NONE', #155, 1000.000000000000000 ) ;
#195 = CARTESIAN_POINT ( 'NONE',  ( 0.000000000000000000, 0.000000000000000000, 3.000000000000000000 ) ) ;
#196 = CYLINDRICAL_SURFACE ( 'NONE', #185, 4.000000000000000000 ) ;
#197 = ADVANCED_FACE ( 'NONE', ( #159 ), #200, .T. ) ;
#198 = DIRECTION ( 'NONE',  ( -1.000000000000000000, 0.000000000000000000, 0.000000000000000000 ) ) ;
#199 = APPROVAL_PERSON_ORGANIZATION ( #211, #218, #231 ) ;
#200 = CYLINDRICAL_SURFACE ( 'NONE', #137, 4.000000000000000000 ) ;
#201 = VERTEX_POINT ( 'NONE', #181 ) ;
#202 =( LENGTH_UNIT ( ) NAMED_UNIT ( * ) SI_UNIT ( .MILLI., .METRE. ) );
#203 = PERSON_AND_ORGANIZATION ( #241, #52 ) ;
#204 = APPROVAL_DATE_TIME ( #88, #180 ) ;
#205 = ORIENTED_EDGE ( 'NONE', *, *, #20, .F. ) ;
#206 = FACE_OUTER_BOUND ( 'NONE', #89, .T. ) ;
#207 = FACE_OUTER_BOUND ( 'NONE', #37, .T. ) ;
#208 = CARTESIAN_POINT ( 'NONE',  ( 0.000000000000000000, 0.000000000000000000, 315.0000000000000000 ) ) ;
#209 = CARTESIAN_POINT ( 'NONE',  ( 0.000000000000000000, 0.000000000000000000, 0.000000000000000000 ) ) ;
#210 = SECURITY_CLASSIFICATION ( '', '', #151 ) ;
#211 = PERSON_AND_ORGANIZATION ( #241, #52 ) ;
#212 = DIRECTION ( 'NONE',  ( 0.000000000000000000, 0.000000000000000000, 1.000000000000000000 ) ) ;
#213 = EDGE_LOOP ( 'NONE', ( #124, #49 ) ) ;
#214 = DIRECTION ( 'NONE',  ( 1.000000000000000000, 0.000000000000000000, 0.000000000000000000 ) ) ;
#215 = AXIS2_PLACEMENT_3D ( 'NONE', #157, #75, #162 ) ;
#216 = DATE_AND_TIME ( #240, #76 ) ;
#217 = EDGE_LOOP ( 'NONE', ( #102, #120 ) ) ;
#218 = APPROVAL ( #158, 'NEURÈENÝ' ) ;
#219 = ORIENTED_EDGE ( 'NONE', *, *, #36, .T. ) ;
#220 = DATE_TIME_ROLE ( 'creation_date' ) ;
#221 = CARTESIAN_POINT ( 'NONE',  ( 0.000000000000000000, 0.000000000000000000, 3.000000000000000000 ) ) ;
#222 = ADVANCED_FACE ( 'NONE', ( #97 ), #84, .T. ) ;
#223 = PLANE ( 'NONE',  #79 ) ;
#224 = VECTOR ( 'NONE', #29, 1000.000000000000000 ) ;
#225 = PERSON_AND_ORGANIZATION ( #241, #52 ) ;
#226 = DIRECTION ( 'NONE',  ( 0.000000000000000000, 0.000000000000000000, 1.000000000000000000 ) ) ;
#227 = CC_DESIGN_APPROVAL ( #218, ( #99 ) ) ;
#228 = DIRECTION ( 'NONE',  ( 0.000000000000000000, 0.000000000000000000, 1.000000000000000000 ) ) ;
#229 = LINE ( 'NONE', #93, #194 ) ;
#230 = CYLINDRICAL_SURFACE ( 'NONE', #215, 2.000000000000000000 ) ;
#231 = APPROVAL_ROLE ( '' ) ;
#232 = DIRECTION ( 'NONE',  ( 1.000000000000000000, 0.000000000000000000, 0.000000000000000000 ) ) ;
#233 = CARTESIAN_POINT ( 'NONE',  ( 4.000000000000000000, 4.898587196589412829E-16, 0.000000000000000000 ) ) ;
#234 = ORIENTED_EDGE ( 'NONE', *, *, #115, .T. ) ;
#235 = PERSON_AND_ORGANIZATION ( #241, #52 ) ;
#236 = APPROVAL ( #128, 'NEURÈENÝ' ) ;
#237 = CALENDAR_DATE ( 2023, 12, 2 ) ;
#238 = VECTOR ( 'NONE', #51, 1000.000000000000000 ) ;
#239 = ORIENTED_EDGE ( 'NONE', *, *, #154, .F. ) ;
#240 = CALENDAR_DATE ( 2023, 12, 2 ) ;
#241 = PERSON ( 'NEURÈENÝ', 'NEURÈENÝ', 'NEURÈENÝ', ('NEURÈENÝ'), ('NEURÈENÝ'), ('NEURÈENÝ') ) ;
#242 = AXIS2_PLACEMENT_3D ( 'NONE', #35, #81, #198 ) ;
#243 = EDGE_LOOP ( 'NONE', ( #143, #205, #144, #250 ) ) ;
#244 = VERTEX_POINT ( 'NONE', #179 ) ;
#245 = CALENDAR_DATE ( 2023, 12, 2 ) ;
#246 = CARTESIAN_POINT ( 'NONE',  ( 4.000000000000000000, 4.898587196589412829E-16, 3.000000000000000000 ) ) ;
#247 = AXIS2_PLACEMENT_3D ( 'NONE', #221, #248, #149 ) ;
#248 = DIRECTION ( 'NONE',  ( 0.000000000000000000, 0.000000000000000000, 1.000000000000000000 ) ) ;
#249 = ORIENTED_EDGE ( 'NONE', *, *, #172, .T. ) ;
#250 = ORIENTED_EDGE ( 'NONE', *, *, #167, .T. ) ;
#251 = PERSON_AND_ORGANIZATION_ROLE ( 'design_owner' ) ;
#252 = CC_DESIGN_DATE_AND_TIME_ASSIGNMENT ( #85, #91, ( #210 ) ) ;
#253 = DATE_AND_TIME ( #32, #16 ) ;
#254 = DIRECTION ( 'NONE',  ( 1.000000000000000000, 0.000000000000000000, -0.000000000000000000 ) ) ;
#255 = ORIENTED_EDGE ( 'NONE', *, *, #172, .F. ) ;
ENDSEC;
END-ISO-10303-21;
