ISO-10303-21;
HEADER;
FILE_DESCRIPTION (( 'STEP AP203' ),
    '1' );
FILE_NAME ('b643.STEP',
    '2023-02-12T10:46:50',
    ( '' ),
    ( '' ),
    'SwSTEP 2.0',
    'SolidWorks 2019',
    '' );
FILE_SCHEMA (( 'CONFIG_CONTROL_DESIGN' ));
ENDSEC;

DATA;
#1 = APPROVAL_ROLE ( '' ) ;
#2 = CC_DESIGN_PERSON_AND_ORGANIZATION_ASSIGNMENT ( #55, #194, ( #127 ) ) ;
#3 = PERSON_AND_ORGANIZATION_ROLE ( 'design_owner' ) ;
#4 = CARTESIAN_POINT ( 'NONE',  ( 0.000000000000000000, 0.000000000000000000, 500.0000000000000000 ) ) ;
#5 = CYLINDRICAL_SURFACE ( 'NONE', #222, 7.000000000000000000 ) ;
#6 = LOCAL_TIME ( 11, 46, 50.00000000000000000, #190 ) ;
#7 = LINE ( 'NONE', #103, #191 ) ;
#8 = ORIENTED_EDGE ( 'NONE', *, *, #248, .F. ) ;
#9 = EDGE_LOOP ( 'NONE', ( #201, #181 ) ) ;
#10 = MANIFOLD_SOLID_BREP ( 'Pøidat vysunutím3', #114 ) ;
#11 = EDGE_CURVE ( 'NONE', #193, #86, #43, .T. ) ;
#12 = PLANE ( 'NONE',  #112 ) ;
#13 = DIRECTION ( 'NONE',  ( 0.000000000000000000, 0.000000000000000000, 1.000000000000000000 ) ) ;
#14 = CC_DESIGN_PERSON_AND_ORGANIZATION_ASSIGNMENT ( #159, #100, ( #59 ) ) ;
#15 = DIRECTION ( 'NONE',  ( 1.000000000000000000, 0.000000000000000000, -0.000000000000000000 ) ) ;
#16 = AXIS2_PLACEMENT_3D ( 'NONE', #4, #66, #160 ) ;
#17 = APPROVAL_PERSON_ORGANIZATION ( #215, #216, #22 ) ;
#18 = FACE_OUTER_BOUND ( 'NONE', #102, .T. ) ;
#19 = EDGE_CURVE ( 'NONE', #24, #46, #69, .T. ) ;
#20 = DATE_AND_TIME ( #192, #176 ) ;
#21 = PERSON_AND_ORGANIZATION ( #64, #139 ) ;
#22 = APPROVAL_ROLE ( '' ) ;
#23 = CARTESIAN_POINT ( 'NONE',  ( 0.000000000000000000, 0.000000000000000000, 7.000000000000000000 ) ) ;
#24 = VERTEX_POINT ( 'NONE', #25 ) ;
#25 = CARTESIAN_POINT ( 'NONE',  ( -11.00000000000000000, 0.000000000000000000, 0.000000000000000000 ) ) ;
#26 = CARTESIAN_POINT ( 'NONE',  ( 11.00000000000000000, 1.347111479062088405E-15, 0.000000000000000000 ) ) ;
#27 = ORIENTED_EDGE ( 'NONE', *, *, #99, .F. ) ;
#28 = DIRECTION ( 'NONE',  ( -0.000000000000000000, -0.000000000000000000, -1.000000000000000000 ) ) ;
#29 = CARTESIAN_POINT ( 'NONE',  ( 11.00000000000000000, 1.347111479062088405E-15, 7.000000000000000000 ) ) ;
#30 = UNCERTAINTY_MEASURE_WITH_UNIT (LENGTH_MEASURE( 1.000000000000000082E-05 ), #108, 'distance_accuracy_value', 'NONE');
#31 = CARTESIAN_POINT ( 'NONE',  ( 0.000000000000000000, 0.000000000000000000, 500.0000000000000000 ) ) ;
#32 = PLANE ( 'NONE',  #209 ) ;
#33 = FACE_BOUND ( 'NONE', #124, .T. ) ;
#34 = COORDINATED_UNIVERSAL_TIME_OFFSET ( 1, 0, .AHEAD. ) ;
#35 = MECHANICAL_CONTEXT ( 'NONE', #67, 'mechanical' ) ;
#36 = ORIENTED_EDGE ( 'NONE', *, *, #19, .F. ) ;
#37 = APPROVAL_PERSON_ORGANIZATION ( #84, #225, #132 ) ;
#38 = PRODUCT ( 'b643', 'b643', '', ( #35 ) ) ;
#39 = AXIS2_PLACEMENT_3D ( 'NONE', #47, #125, #200 ) ;
#40 = CC_DESIGN_SECURITY_CLASSIFICATION ( #117, ( #127 ) ) ;
#41 = ORIENTED_EDGE ( 'NONE', *, *, #137, .F. ) ;
#42 = ORIENTED_EDGE ( 'NONE', *, *, #44, .F. ) ;
#43 = LINE ( 'NONE', #121, #92 ) ;
#44 = EDGE_CURVE ( 'NONE', #46, #24, #62, .T. ) ;
#45 = VECTOR ( 'NONE', #138, 1000.000000000000000 ) ;
#46 = VERTEX_POINT ( 'NONE', #26 ) ;
#47 = CARTESIAN_POINT ( 'NONE',  ( 0.000000000000000000, 0.000000000000000000, 0.000000000000000000 ) ) ;
#48 = DIRECTION ( 'NONE',  ( -1.000000000000000000, 0.000000000000000000, 0.000000000000000000 ) ) ;
#49 = FACE_OUTER_BOUND ( 'NONE', #9, .T. ) ;
#50 = EDGE_CURVE ( 'NONE', #58, #86, #241, .T. ) ;
#51 = DIRECTION ( 'NONE',  ( -1.000000000000000000, 0.000000000000000000, 0.000000000000000000 ) ) ;
#52 = EDGE_CURVE ( 'NONE', #136, #24, #7, .T. ) ;
#53 = DIRECTION ( 'NONE',  ( 1.000000000000000000, 0.000000000000000000, 0.000000000000000000 ) ) ;
#54 = PERSON_AND_ORGANIZATION_ROLE ( 'design_supplier' ) ;
#55 = PERSON_AND_ORGANIZATION ( #64, #139 ) ;
#56 = ORIENTED_EDGE ( 'NONE', *, *, #11, .T. ) ;
#57 = APPROVAL_DATE_TIME ( #113, #129 ) ;
#58 = VERTEX_POINT ( 'NONE', #89 ) ;
#59 = PRODUCT_DEFINITION ( 'NEZNÁMÝ', '', #127, #73 ) ;
#60 = ORIENTED_EDGE ( 'NONE', *, *, #150, .F. ) ;
#61 = CARTESIAN_POINT ( 'NONE',  ( -7.000000000000000000, 0.000000000000000000, 500.0000000000000000 ) ) ;
#62 = CIRCLE ( 'NONE', #39, 11.00000000000000000 ) ;
#63 = ORIENTED_EDGE ( 'NONE', *, *, #140, .F. ) ;
#64 = PERSON ( 'NEURÈENÝ', 'NEURÈENÝ', 'NEURÈENÝ', ('NEURÈENÝ'), ('NEURÈENÝ'), ('NEURÈENÝ') ) ;
#65 = PRODUCT_DEFINITION_SHAPE ( 'NONE', 'NONE',  #59 ) ;
#66 = DIRECTION ( 'NONE',  ( 0.000000000000000000, 0.000000000000000000, 1.000000000000000000 ) ) ;
#67 = APPLICATION_CONTEXT ( 'configuration controlled 3d designs of mechanical parts and assemblies' ) ;
#68 = ORIENTED_EDGE ( 'NONE', *, *, #11, .F. ) ;
#69 = CIRCLE ( 'NONE', #217, 11.00000000000000000 ) ;
#70 = AXIS2_PLACEMENT_3D ( 'NONE', #226, #13, #128 ) ;
#71 = DIRECTION ( 'NONE',  ( 1.000000000000000000, 0.000000000000000000, 0.000000000000000000 ) ) ;
#72 = DIRECTION ( 'NONE',  ( 1.000000000000000000, 0.000000000000000000, -0.000000000000000000 ) ) ;
#73 = DESIGN_CONTEXT ( 'detailed design', #153, 'design' ) ;
#74 = CIRCLE ( 'NONE', #93, 7.000000000000000000 ) ;
#75 = DIRECTION ( 'NONE',  ( -0.000000000000000000, -0.000000000000000000, -1.000000000000000000 ) ) ;
#76 = CC_DESIGN_APPROVAL ( #225, ( #59 ) ) ;
#77 = CARTESIAN_POINT ( 'NONE',  ( 0.000000000000000000, 0.000000000000000000, 7.000000000000000000 ) ) ;
#78 = CARTESIAN_POINT ( 'NONE',  ( 0.000000000000000000, 0.000000000000000000, 7.000000000000000000 ) ) ;
#79 = AXIS2_PLACEMENT_3D ( 'NONE', #147, #109, #149 ) ;
#80 = APPROVAL_STATUS ( 'not_yet_approved' ) ;
#81 = APPROVAL_DATE_TIME ( #211, #225 ) ;
#82 = PERSON_AND_ORGANIZATION ( #64, #139 ) ;
#83 = AXIS2_PLACEMENT_3D ( 'NONE', #205, #130, #207 ) ;
#84 = PERSON_AND_ORGANIZATION ( #64, #139 ) ;
#85 = EDGE_LOOP ( 'NONE', ( #36, #42 ) ) ;
#86 = VERTEX_POINT ( 'NONE', #182 ) ;
#87 = AXIS2_PLACEMENT_3D ( 'NONE', #252, #28, #107 ) ;
#88 = LOCAL_TIME ( 11, 46, 50.00000000000000000, #34 ) ;
#89 = CARTESIAN_POINT ( 'NONE',  ( -7.000000000000000000, 0.000000000000000000, 7.000000000000000000 ) ) ;
#90 = ORIENTED_EDGE ( 'NONE', *, *, #50, .F. ) ;
#91 = FACE_OUTER_BOUND ( 'NONE', #146, .T. ) ;
#92 = VECTOR ( 'NONE', #123, 1000.000000000000000 ) ;
#93 = AXIS2_PLACEMENT_3D ( 'NONE', #177, #247, #71 ) ;
#94 = CARTESIAN_POINT ( 'NONE',  ( 0.000000000000000000, 0.000000000000000000, 0.000000000000000000 ) ) ;
#95 = ADVANCED_FACE ( 'NONE', ( #91 ), #218, .T. ) ;
#96 = SHAPE_DEFINITION_REPRESENTATION ( #65, #174 ) ;
#97 = AXIS2_PLACEMENT_3D ( 'NONE', #106, #104, #179 ) ;
#98 = LOCAL_TIME ( 11, 46, 50.00000000000000000, #255 ) ;
#99 = EDGE_CURVE ( 'NONE', #86, #58, #74, .T. ) ;
#100 = PERSON_AND_ORGANIZATION_ROLE ( 'creator' ) ;
#101 = ORIENTED_EDGE ( 'NONE', *, *, #161, .F. ) ;
#102 = EDGE_LOOP ( 'NONE', ( #68, #60, #116, #165 ) ) ;
#103 = CARTESIAN_POINT ( 'NONE',  ( -11.00000000000000000, 0.000000000000000000, 7.000000000000000000 ) ) ;
#104 = DIRECTION ( 'NONE',  ( 0.000000000000000000, 0.000000000000000000, 1.000000000000000000 ) ) ;
#105 = DIRECTION ( 'NONE',  ( -0.000000000000000000, -0.000000000000000000, -1.000000000000000000 ) ) ;
#106 = CARTESIAN_POINT ( 'NONE',  ( 0.000000000000000000, 0.000000000000000000, 7.000000000000000000 ) ) ;
#107 = DIRECTION ( 'NONE',  ( -1.000000000000000000, 0.000000000000000000, 0.000000000000000000 ) ) ;
#108 =( LENGTH_UNIT ( ) NAMED_UNIT ( * ) SI_UNIT ( .MILLI., .METRE. ) );
#109 = DIRECTION ( 'NONE',  ( 0.000000000000000000, 0.000000000000000000, 1.000000000000000000 ) ) ;
#110 = CARTESIAN_POINT ( 'NONE',  ( 11.00000000000000000, 1.347111479062088405E-15, 7.000000000000000000 ) ) ;
#111 = FACE_OUTER_BOUND ( 'NONE', #85, .T. ) ;
#112 = AXIS2_PLACEMENT_3D ( 'NONE', #78, #169, #72 ) ;
#113 = DATE_AND_TIME ( #212, #88 ) ;
#114 = CLOSED_SHELL ( 'NONE', ( #144, #244, #95, #180, #253, #189, #237 ) ) ;
#115 = CALENDAR_DATE ( 2023, 12, 2 ) ;
#116 = ORIENTED_EDGE ( 'NONE', *, *, #140, .T. ) ;
#117 = SECURITY_CLASSIFICATION ( '', '', #238 ) ;
#118 = APPROVAL_STATUS ( 'not_yet_approved' ) ;
#119 = PRODUCT_RELATED_PRODUCT_CATEGORY ( 'detail', '', ( #38 ) ) ;
#120 = COORDINATED_UNIVERSAL_TIME_OFFSET ( 1, 0, .AHEAD. ) ;
#121 = CARTESIAN_POINT ( 'NONE',  ( 7.000000000000000000, 8.572527594031473190E-16, 500.0000000000000000 ) ) ;
#122 = EDGE_LOOP ( 'NONE', ( #195, #233 ) ) ;
#123 = DIRECTION ( 'NONE',  ( -0.000000000000000000, -0.000000000000000000, -1.000000000000000000 ) ) ;
#124 = EDGE_LOOP ( 'NONE', ( #90, #27 ) ) ;
#125 = DIRECTION ( 'NONE',  ( 0.000000000000000000, 0.000000000000000000, 1.000000000000000000 ) ) ;
#126 = FACE_OUTER_BOUND ( 'NONE', #246, .T. ) ;
#127 = PRODUCT_DEFINITION_FORMATION_WITH_SPECIFIED_SOURCE ( 'LIBOVOLNÝ', '', #38, .NOT_KNOWN. ) ;
#128 = DIRECTION ( 'NONE',  ( 1.000000000000000000, 0.000000000000000000, 0.000000000000000000 ) ) ;
#129 = APPROVAL ( #80, 'NEURÈENÝ' ) ;
#130 = DIRECTION ( 'NONE',  ( 0.000000000000000000, 0.000000000000000000, 1.000000000000000000 ) ) ;
#131 = PERSON_AND_ORGANIZATION ( #64, #139 ) ;
#132 = APPROVAL_ROLE ( '' ) ;
#133 = CALENDAR_DATE ( 2023, 12, 2 ) ;
#134 = AXIS2_PLACEMENT_3D ( 'NONE', #23, #164, #167 ) ;
#135 = DIRECTION ( 'NONE',  ( 0.000000000000000000, 0.000000000000000000, 1.000000000000000000 ) ) ;
#136 = VERTEX_POINT ( 'NONE', #245 ) ;
#137 = EDGE_CURVE ( 'NONE', #193, #162, #235, .T. ) ;
#138 = DIRECTION ( 'NONE',  ( -0.000000000000000000, -0.000000000000000000, -1.000000000000000000 ) ) ;
#139 = ORGANIZATION ( 'NEURÈENÝ', 'NEURÈENÝ', '' ) ;
#140 = EDGE_CURVE ( 'NONE', #162, #58, #240, .T. ) ;
#141 = ORIENTED_EDGE ( 'NONE', *, *, #99, .T. ) ;
#142 = ORIENTED_EDGE ( 'NONE', *, *, #52, .T. ) ;
#143 = ORIENTED_EDGE ( 'NONE', *, *, #44, .T. ) ;
#144 = ADVANCED_FACE ( 'NONE', ( #178 ), #5, .T. ) ;
#145 = AXIS2_PLACEMENT_3D ( 'NONE', #203, #75, #48 ) ;
#146 = EDGE_LOOP ( 'NONE', ( #220, #8, #142, #224 ) ) ;
#147 = CARTESIAN_POINT ( 'NONE',  ( 0.000000000000000000, 0.000000000000000000, 500.0000000000000000 ) ) ;
#148 = CARTESIAN_POINT ( 'NONE',  ( 0.000000000000000000, 0.000000000000000000, 0.000000000000000000 ) ) ;
#149 = DIRECTION ( 'NONE',  ( 1.000000000000000000, 0.000000000000000000, -0.000000000000000000 ) ) ;
#150 = EDGE_CURVE ( 'NONE', #162, #193, #208, .T. ) ;
#151 = LINE ( 'NONE', #110, #172 ) ;
#152 =( NAMED_UNIT ( * ) PLANE_ANGLE_UNIT ( ) SI_UNIT ( $, .RADIAN. ) );
#153 = APPLICATION_CONTEXT ( 'configuration controlled 3d designs of mechanical parts and assemblies' ) ;
#154 = DIRECTION ( 'NONE',  ( 1.000000000000000000, 0.000000000000000000, 0.000000000000000000 ) ) ;
#155 = CIRCLE ( 'NONE', #184, 11.00000000000000000 ) ;
#156 = COORDINATED_UNIVERSAL_TIME_OFFSET ( 1, 0, .AHEAD. ) ;
#157 = DATE_AND_TIME ( #115, #243 ) ;
#158 = DATE_AND_TIME ( #133, #6 ) ;
#159 = PERSON_AND_ORGANIZATION ( #64, #139 ) ;
#160 = DIRECTION ( 'NONE',  ( 1.000000000000000000, 0.000000000000000000, 0.000000000000000000 ) ) ;
#161 = EDGE_CURVE ( 'NONE', #214, #136, #155, .T. ) ;
#162 = VERTEX_POINT ( 'NONE', #168 ) ;
#163 = APPROVAL_PERSON_ORGANIZATION ( #234, #129, #1 ) ;
#164 = DIRECTION ( 'NONE',  ( -0.000000000000000000, -0.000000000000000000, -1.000000000000000000 ) ) ;
#165 = ORIENTED_EDGE ( 'NONE', *, *, #50, .T. ) ;
#166 = CC_DESIGN_DATE_AND_TIME_ASSIGNMENT ( #158, #171, ( #117 ) ) ;
#167 = DIRECTION ( 'NONE',  ( -1.000000000000000000, 0.000000000000000000, 0.000000000000000000 ) ) ;
#168 = CARTESIAN_POINT ( 'NONE',  ( -7.000000000000000000, 0.000000000000000000, 500.0000000000000000 ) ) ;
#169 = DIRECTION ( 'NONE',  ( 0.000000000000000000, 0.000000000000000000, 1.000000000000000000 ) ) ;
#170 = CYLINDRICAL_SURFACE ( 'NONE', #87, 11.00000000000000000 ) ;
#171 = DATE_TIME_ROLE ( 'classification_date' ) ;
#172 = VECTOR ( 'NONE', #202, 1000.000000000000000 ) ;
#173 = CC_DESIGN_APPROVAL ( #216, ( #117 ) ) ;
#174 = ADVANCED_BREP_SHAPE_REPRESENTATION ( 'b643', ( #10, #204 ), #227 ) ;
#175 = CIRCLE ( 'NONE', #70, 11.00000000000000000 ) ;
#176 = LOCAL_TIME ( 11, 46, 50.00000000000000000, #120 ) ;
#177 = CARTESIAN_POINT ( 'NONE',  ( 0.000000000000000000, 0.000000000000000000, 7.000000000000000000 ) ) ;
#178 = FACE_OUTER_BOUND ( 'NONE', #239, .T. ) ;
#179 = DIRECTION ( 'NONE',  ( 1.000000000000000000, 0.000000000000000000, 0.000000000000000000 ) ) ;
#180 = ADVANCED_FACE ( 'NONE', ( #33, #49 ), #12, .T. ) ;
#181 = ORIENTED_EDGE ( 'NONE', *, *, #161, .T. ) ;
#182 = CARTESIAN_POINT ( 'NONE',  ( 7.000000000000000000, 8.572527594031473190E-16, 7.000000000000000000 ) ) ;
#183 = PLANE ( 'NONE',  #79 ) ;
#184 = AXIS2_PLACEMENT_3D ( 'NONE', #77, #230, #53 ) ;
#185 = DIRECTION ( 'NONE',  ( -0.000000000000000000, -0.000000000000000000, -1.000000000000000000 ) ) ;
#186 = CARTESIAN_POINT ( 'NONE',  ( 7.000000000000000000, 8.572527594031473190E-16, 500.0000000000000000 ) ) ;
#187 = CYLINDRICAL_SURFACE ( 'NONE', #145, 7.000000000000000000 ) ;
#188 = FACE_OUTER_BOUND ( 'NONE', #122, .T. ) ;
#189 = ADVANCED_FACE ( 'NONE', ( #18 ), #187, .T. ) ;
#190 = COORDINATED_UNIVERSAL_TIME_OFFSET ( 1, 0, .AHEAD. ) ;
#191 = VECTOR ( 'NONE', #105, 1000.000000000000000 ) ;
#192 = CALENDAR_DATE ( 2023, 12, 2 ) ;
#193 = VERTEX_POINT ( 'NONE', #186 ) ;
#194 = PERSON_AND_ORGANIZATION_ROLE ( 'creator' ) ;
#195 = ORIENTED_EDGE ( 'NONE', *, *, #150, .T. ) ;
#196 = APPROVAL_STATUS ( 'not_yet_approved' ) ;
#197 = CC_DESIGN_PERSON_AND_ORGANIZATION_ASSIGNMENT ( #21, #54, ( #127 ) ) ;
#198 = CARTESIAN_POINT ( 'NONE',  ( 0.000000000000000000, 0.000000000000000000, 0.000000000000000000 ) ) ;
#199 = DIRECTION ( 'NONE',  ( 0.000000000000000000, 0.000000000000000000, 1.000000000000000000 ) ) ;
#200 = DIRECTION ( 'NONE',  ( 1.000000000000000000, 0.000000000000000000, 0.000000000000000000 ) ) ;
#201 = ORIENTED_EDGE ( 'NONE', *, *, #248, .T. ) ;
#202 = DIRECTION ( 'NONE',  ( -0.000000000000000000, -0.000000000000000000, -1.000000000000000000 ) ) ;
#203 = CARTESIAN_POINT ( 'NONE',  ( 0.000000000000000000, 0.000000000000000000, 500.0000000000000000 ) ) ;
#204 = AXIS2_PLACEMENT_3D ( 'NONE', #148, #135, #154 ) ;
#205 = CARTESIAN_POINT ( 'NONE',  ( 0.000000000000000000, 0.000000000000000000, 500.0000000000000000 ) ) ;
#206 = CC_DESIGN_PERSON_AND_ORGANIZATION_ASSIGNMENT ( #82, #236, ( #117 ) ) ;
#207 = DIRECTION ( 'NONE',  ( 1.000000000000000000, 0.000000000000000000, 0.000000000000000000 ) ) ;
#208 = CIRCLE ( 'NONE', #83, 7.000000000000000000 ) ;
#209 = AXIS2_PLACEMENT_3D ( 'NONE', #94, #251, #15 ) ;
#210 = APPROVAL_DATE_TIME ( #20, #216 ) ;
#211 = DATE_AND_TIME ( #231, #98 ) ;
#212 = CALENDAR_DATE ( 2023, 12, 2 ) ;
#213 = CC_DESIGN_PERSON_AND_ORGANIZATION_ASSIGNMENT ( #131, #3, ( #38 ) ) ;
#214 = VERTEX_POINT ( 'NONE', #29 ) ;
#215 = PERSON_AND_ORGANIZATION ( #64, #139 ) ;
#216 = APPROVAL ( #196, 'NEURÈENÝ' ) ;
#217 = AXIS2_PLACEMENT_3D ( 'NONE', #198, #199, #219 ) ;
#218 = CYLINDRICAL_SURFACE ( 'NONE', #134, 11.00000000000000000 ) ;
#219 = DIRECTION ( 'NONE',  ( 1.000000000000000000, 0.000000000000000000, 0.000000000000000000 ) ) ;
#220 = ORIENTED_EDGE ( 'NONE', *, *, #229, .F. ) ;
#221 = CC_DESIGN_DATE_AND_TIME_ASSIGNMENT ( #157, #232, ( #59 ) ) ;
#222 = AXIS2_PLACEMENT_3D ( 'NONE', #31, #185, #51 ) ;
#223 = ORIENTED_EDGE ( 'NONE', *, *, #52, .F. ) ;
#224 = ORIENTED_EDGE ( 'NONE', *, *, #19, .T. ) ;
#225 = APPROVAL ( #118, 'NEURÈENÝ' ) ;
#226 = CARTESIAN_POINT ( 'NONE',  ( 0.000000000000000000, 0.000000000000000000, 7.000000000000000000 ) ) ;
#227 =( GEOMETRIC_REPRESENTATION_CONTEXT ( 3 ) GLOBAL_UNCERTAINTY_ASSIGNED_CONTEXT ( ( #30 ) ) GLOBAL_UNIT_ASSIGNED_CONTEXT ( ( #108, #152, #250 ) ) REPRESENTATION_CONTEXT ( 'NONE', 'WORKASPACE' ) );
#228 = CC_DESIGN_APPROVAL ( #129, ( #127 ) ) ;
#229 = EDGE_CURVE ( 'NONE', #214, #46, #151, .T. ) ;
#230 = DIRECTION ( 'NONE',  ( 0.000000000000000000, 0.000000000000000000, 1.000000000000000000 ) ) ;
#231 = CALENDAR_DATE ( 2023, 12, 2 ) ;
#232 = DATE_TIME_ROLE ( 'creation_date' ) ;
#233 = ORIENTED_EDGE ( 'NONE', *, *, #137, .T. ) ;
#234 = PERSON_AND_ORGANIZATION ( #64, #139 ) ;
#235 = CIRCLE ( 'NONE', #16, 7.000000000000000000 ) ;
#236 = PERSON_AND_ORGANIZATION_ROLE ( 'classification_officer' ) ;
#237 = ADVANCED_FACE ( 'NONE', ( #188 ), #183, .T. ) ;
#238 = SECURITY_CLASSIFICATION_LEVEL ( 'unclassified' ) ;
#239 = EDGE_LOOP ( 'NONE', ( #41, #56, #141, #63 ) ) ;
#240 = LINE ( 'NONE', #61, #45 ) ;
#241 = CIRCLE ( 'NONE', #97, 7.000000000000000000 ) ;
#242 = ORIENTED_EDGE ( 'NONE', *, *, #229, .T. ) ;
#243 = LOCAL_TIME ( 11, 46, 50.00000000000000000, #156 ) ;
#244 = ADVANCED_FACE ( 'NONE', ( #126 ), #170, .T. ) ;
#245 = CARTESIAN_POINT ( 'NONE',  ( -11.00000000000000000, 0.000000000000000000, 7.000000000000000000 ) ) ;
#246 = EDGE_LOOP ( 'NONE', ( #101, #242, #143, #223 ) ) ;
#247 = DIRECTION ( 'NONE',  ( 0.000000000000000000, 0.000000000000000000, 1.000000000000000000 ) ) ;
#248 = EDGE_CURVE ( 'NONE', #136, #214, #175, .T. ) ;
#249 = APPLICATION_PROTOCOL_DEFINITION ( 'international standard', 'config_control_design', 1994, #67 ) ;
#250 =( NAMED_UNIT ( * ) SI_UNIT ( $, .STERADIAN. ) SOLID_ANGLE_UNIT ( ) );
#251 = DIRECTION ( 'NONE',  ( 0.000000000000000000, 0.000000000000000000, 1.000000000000000000 ) ) ;
#252 = CARTESIAN_POINT ( 'NONE',  ( 0.000000000000000000, 0.000000000000000000, 7.000000000000000000 ) ) ;
#253 = ADVANCED_FACE ( 'NONE', ( #111 ), #32, .F. ) ;
#254 = APPLICATION_PROTOCOL_DEFINITION ( 'international standard', 'config_control_design', 1994, #153 ) ;
#255 = COORDINATED_UNIVERSAL_TIME_OFFSET ( 1, 0, .AHEAD. ) ;
ENDSEC;
END-ISO-10303-21;
