ISO-10303-21;
HEADER;
FILE_DESCRIPTION (( 'STEP AP203' ),
    '1' );
FILE_NAME ('1a91.STEP',
    '2022-07-07T12:32:37',
    ( '' ),
    ( '' ),
    'SwSTEP 2.0',
    'SolidWorks 2019',
    '' );
FILE_SCHEMA (( 'CONFIG_CONTROL_DESIGN' ));
ENDSEC;

DATA;
#1 = CARTESIAN_POINT ( 'NONE',  ( 0.000000000000000000, 0.000000000000000000, 205.0000000000000284 ) ) ;
#2 = DIRECTION ( 'NONE',  ( 0.000000000000000000, 0.000000000000000000, 1.000000000000000000 ) ) ;
#3 = CARTESIAN_POINT ( 'NONE',  ( 4.099999999999999645, 5.021051876504147385E-16, 205.0000000000000284 ) ) ;
#4 = PLANE ( 'NONE',  #142 ) ;
#5 = CARTESIAN_POINT ( 'NONE',  ( 0.000000000000000000, 0.000000000000000000, 0.000000000000000000 ) ) ;
#6 = ADVANCED_FACE ( 'NONE', ( #71 ), #4, .T. ) ;
#7 = DIRECTION ( 'NONE',  ( 0.000000000000000000, 0.000000000000000000, -1.000000000000000000 ) ) ;
#8 = DIRECTION ( 'NONE',  ( 1.000000000000000000, 0.000000000000000000, 0.000000000000000000 ) ) ;
#9 = AXIS2_PLACEMENT_3D ( 'NONE', #73, #268, #168 ) ;
#10 = AXIS2_PLACEMENT_3D ( 'NONE', #225, #294, #60 ) ;
#11 = DIRECTION ( 'NONE',  ( 0.000000000000000000, 0.000000000000000000, 1.000000000000000000 ) ) ;
#12 = ADVANCED_FACE ( 'NONE', ( #167 ), #237, .F. ) ;
#13 = DIRECTION ( 'NONE',  ( 1.000000000000000000, 0.000000000000000000, 0.000000000000000000 ) ) ;
#14 = AXIS2_PLACEMENT_3D ( 'NONE', #49, #102, #145 ) ;
#15 = PERSON_AND_ORGANIZATION_ROLE ( 'design_supplier' ) ;
#16 = ORIENTED_EDGE ( 'NONE', *, *, #267, .F. ) ;
#17 = EDGE_CURVE ( 'NONE', #119, #205, #215, .T. ) ;
#18 = ORIENTED_EDGE ( 'NONE', *, *, #159, .T. ) ;
#19 = COORDINATED_UNIVERSAL_TIME_OFFSET ( 1, 0, .AHEAD. ) ;
#20 = EDGE_LOOP ( 'NONE', ( #125, #233, #305, #288 ) ) ;
#21 = APPROVAL_DATE_TIME ( #304, #171 ) ;
#22 = CC_DESIGN_PERSON_AND_ORGANIZATION_ASSIGNMENT ( #132, #91, ( #261 ) ) ;
#23 = VERTEX_POINT ( 'NONE', #221 ) ;
#24 = DIRECTION ( 'NONE',  ( 1.000000000000000000, 0.000000000000000000, 0.000000000000000000 ) ) ;
#25 = EDGE_LOOP ( 'NONE', ( #137, #146, #307, #124 ) ) ;
#26 = CIRCLE ( 'NONE', #198, 0.1999999999999996503 ) ;
#27 = ORIENTED_EDGE ( 'NONE', *, *, #17, .T. ) ;
#28 = VERTEX_POINT ( 'NONE', #103 ) ;
#29 = CC_DESIGN_PERSON_AND_ORGANIZATION_ASSIGNMENT ( #113, #275, ( #273 ) ) ;
#30 = PRODUCT_DEFINITION_SHAPE ( 'NONE', 'NONE',  #261 ) ;
#31 = TOROIDAL_SURFACE ( 'NONE', #100, 4.299999999999998934, 0.2000000000000000111 ) ;
#32 = CARTESIAN_POINT ( 'NONE',  ( -4.299999999999998934, 5.265981236333617484E-16, 5.000000000000005329 ) ) ;
#33 = CARTESIAN_POINT ( 'NONE',  ( 0.000000000000000000, 0.000000000000000000, 5.000000000000000000 ) ) ;
#34 = CARTESIAN_POINT ( 'NONE',  ( 0.000000000000000000, 0.000000000000000000, 5.000000000000000000 ) ) ;
#35 = PLANE ( 'NONE',  #279 ) ;
#36 = CC_DESIGN_APPROVAL ( #293, ( #297 ) ) ;
#37 = DATE_TIME_ROLE ( 'creation_date' ) ;
#38 = EDGE_CURVE ( 'NONE', #208, #23, #123, .T. ) ;
#39 = ORIENTED_EDGE ( 'NONE', *, *, #38, .F. ) ;
#40 = APPLICATION_PROTOCOL_DEFINITION ( 'international standard', 'config_control_design', 1994, #52 ) ;
#41 = ORIENTED_EDGE ( 'NONE', *, *, #278, .F. ) ;
#42 = LOCAL_TIME ( 14, 32, 37.00000000000000000, #19 ) ;
#43 = SHAPE_DEFINITION_REPRESENTATION ( #30, #264 ) ;
#44 = APPROVAL_STATUS ( 'not_yet_approved' ) ;
#45 = EDGE_CURVE ( 'NONE', #281, #144, #284, .T. ) ;
#46 = ORIENTED_EDGE ( 'NONE', *, *, #159, .F. ) ;
#47 = CIRCLE ( 'NONE', #88, 4.299999999999998934 ) ;
#48 = LOCAL_TIME ( 14, 32, 37.00000000000000000, #207 ) ;
#49 = CARTESIAN_POINT ( 'NONE',  ( -4.299999999999998934, 5.265981236333617484E-16, 5.200000000000009948 ) ) ;
#50 = CARTESIAN_POINT ( 'NONE',  ( 0.000000000000000000, 0.000000000000000000, 205.0000000000000284 ) ) ;
#51 = CYLINDRICAL_SURFACE ( 'NONE', #70, 7.000000000000000000 ) ;
#52 = APPLICATION_CONTEXT ( 'configuration controlled 3d designs of mechanical parts and assemblies' ) ;
#53 = AXIS2_PLACEMENT_3D ( 'NONE', #79, #128, #129 ) ;
#54 = CARTESIAN_POINT ( 'NONE',  ( 7.000000000000000000, 8.572527594031473190E-16, 5.000000000000000000 ) ) ;
#55 = DIRECTION ( 'NONE',  ( -1.000000000000000000, 0.000000000000000000, 0.000000000000000000 ) ) ;
#56 = DIRECTION ( 'NONE',  ( -0.000000000000000000, -0.000000000000000000, -1.000000000000000000 ) ) ;
#57 = CARTESIAN_POINT ( 'NONE',  ( 0.000000000000000000, 0.000000000000000000, 5.000000000000000000 ) ) ;
#58 = FACE_OUTER_BOUND ( 'NONE', #92, .T. ) ;
#59 = FACE_BOUND ( 'NONE', #139, .T. ) ;
#60 = DIRECTION ( 'NONE',  ( -1.000000000000000000, 0.000000000000000000, 0.000000000000000000 ) ) ;
#61 = ADVANCED_FACE ( 'NONE', ( #287 ), #109, .F. ) ;
#62 = CALENDAR_DATE ( 2022, 7, 7 ) ;
#63 = ORIENTED_EDGE ( 'NONE', *, *, #148, .T. ) ;
#64 = APPROVAL_ROLE ( '' ) ;
#65 = EDGE_LOOP ( 'NONE', ( #283, #220 ) ) ;
#66 = APPROVAL_PERSON_ORGANIZATION ( #138, #293, #64 ) ;
#67 = DATE_AND_TIME ( #87, #42 ) ;
#68 = ORIENTED_EDGE ( 'NONE', *, *, #121, .T. ) ;
#69 = AXIS2_PLACEMENT_3D ( 'NONE', #122, #170, #240 ) ;
#70 = AXIS2_PLACEMENT_3D ( 'NONE', #150, #120, #213 ) ;
#71 = FACE_OUTER_BOUND ( 'NONE', #259, .T. ) ;
#72 =( GEOMETRIC_REPRESENTATION_CONTEXT ( 3 ) GLOBAL_UNCERTAINTY_ASSIGNED_CONTEXT ( ( #107 ) ) GLOBAL_UNIT_ASSIGNED_CONTEXT ( ( #110, #155, #280 ) ) REPRESENTATION_CONTEXT ( 'NONE', 'WORKASPACE' ) );
#73 = CARTESIAN_POINT ( 'NONE',  ( 0.000000000000000000, 0.000000000000000000, 5.200000000000009948 ) ) ;
#74 = DIRECTION ( 'NONE',  ( -0.000000000000000000, -0.000000000000000000, -1.000000000000000000 ) ) ;
#75 = VERTEX_POINT ( 'NONE', #217 ) ;
#76 = ORIENTED_EDGE ( 'NONE', *, *, #256, .F. ) ;
#77 = EDGE_CURVE ( 'NONE', #28, #205, #189, .T. ) ;
#78 = DIRECTION ( 'NONE',  ( 1.000000000000000000, 0.000000000000000000, 0.000000000000000000 ) ) ;
#79 = CARTESIAN_POINT ( 'NONE',  ( 0.000000000000000000, 0.000000000000000000, 205.0000000000000284 ) ) ;
#80 = VECTOR ( 'NONE', #262, 1000.000000000000000 ) ;
#81 = DIRECTION ( 'NONE',  ( 1.000000000000000000, 0.000000000000000000, 0.000000000000000000 ) ) ;
#82 = MANIFOLD_SOLID_BREP ( 'Zaoblit1', #203 ) ;
#83 = APPLICATION_CONTEXT ( 'configuration controlled 3d designs of mechanical parts and assemblies' ) ;
#84 = FACE_OUTER_BOUND ( 'NONE', #65, .T. ) ;
#85 = DIRECTION ( 'NONE',  ( 0.000000000000000000, 0.000000000000000000, 1.000000000000000000 ) ) ;
#86 = AXIS2_PLACEMENT_3D ( 'NONE', #265, #74, #55 ) ;
#87 = CALENDAR_DATE ( 2022, 7, 7 ) ;
#88 = AXIS2_PLACEMENT_3D ( 'NONE', #34, #56, #81 ) ;
#89 = ORIENTED_EDGE ( 'NONE', *, *, #45, .T. ) ;
#90 = DATE_TIME_ROLE ( 'classification_date' ) ;
#91 = PERSON_AND_ORGANIZATION_ROLE ( 'creator' ) ;
#92 = EDGE_LOOP ( 'NONE', ( #251, #183, #63, #16 ) ) ;
#93 = DATE_AND_TIME ( #303, #48 ) ;
#94 = CC_DESIGN_PERSON_AND_ORGANIZATION_ASSIGNMENT ( #157, #255, ( #297 ) ) ;
#95 = AXIS2_PLACEMENT_3D ( 'NONE', #111, #245, #292 ) ;
#96 = PERSON_AND_ORGANIZATION ( #158, #249 ) ;
#97 = CYLINDRICAL_SURFACE ( 'NONE', #86, 7.000000000000000000 ) ;
#98 = EDGE_CURVE ( 'NONE', #208, #238, #266, .T. ) ;
#99 = DIRECTION ( 'NONE',  ( 1.000000000000000000, 0.000000000000000000, -0.000000000000000000 ) ) ;
#100 = AXIS2_PLACEMENT_3D ( 'NONE', #108, #11, #8 ) ;
#101 = DIRECTION ( 'NONE',  ( -0.000000000000000000, -0.000000000000000000, -1.000000000000000000 ) ) ;
#102 = DIRECTION ( 'NONE',  ( 1.224646799147353207E-16, 1.000000000000000000, -0.000000000000000000 ) ) ;
#103 = CARTESIAN_POINT ( 'NONE',  ( 7.000000000000000000, 8.572527594031473190E-16, 5.000000000000000000 ) ) ;
#104 = ADVANCED_FACE ( 'NONE', ( #166 ), #97, .T. ) ;
#105 = DIRECTION ( 'NONE',  ( 1.000000000000000000, 0.000000000000000000, 0.000000000000000000 ) ) ;
#106 = CARTESIAN_POINT ( 'NONE',  ( 0.000000000000000000, 0.000000000000000000, 5.000000000000000000 ) ) ;
#107 = UNCERTAINTY_MEASURE_WITH_UNIT (LENGTH_MEASURE( 1.000000000000000082E-05 ), #110, 'distance_accuracy_value', 'NONE');
#108 = CARTESIAN_POINT ( 'NONE',  ( 0.000000000000000000, 0.000000000000000000, 5.200000000000009948 ) ) ;
#109 = TOROIDAL_SURFACE ( 'NONE', #9, 4.299999999999998934, 0.2000000000000000111 ) ;
#110 =( LENGTH_UNIT ( ) NAMED_UNIT ( * ) SI_UNIT ( .MILLI., .METRE. ) );
#111 = CARTESIAN_POINT ( 'NONE',  ( 0.000000000000000000, 0.000000000000000000, 5.200000000000009948 ) ) ;
#112 = VECTOR ( 'NONE', #214, 1000.000000000000000 ) ;
#113 = PERSON_AND_ORGANIZATION ( #158, #249 ) ;
#114 = CIRCLE ( 'NONE', #95, 4.099999999999999645 ) ;
#115 = ADVANCED_FACE ( 'NONE', ( #149 ), #51, .T. ) ;
#116 = PERSON_AND_ORGANIZATION_ROLE ( 'design_owner' ) ;
#117 = ORIENTED_EDGE ( 'NONE', *, *, #278, .T. ) ;
#118 = SECURITY_CLASSIFICATION_LEVEL ( 'unclassified' ) ;
#119 = VERTEX_POINT ( 'NONE', #188 ) ;
#120 = DIRECTION ( 'NONE',  ( -0.000000000000000000, -0.000000000000000000, -1.000000000000000000 ) ) ;
#121 = EDGE_CURVE ( 'NONE', #147, #119, #285, .T. ) ;
#122 = CARTESIAN_POINT ( 'NONE',  ( 0.000000000000000000, 0.000000000000000000, 0.000000000000000000 ) ) ;
#123 = LINE ( 'NONE', #3, #112 ) ;
#124 = ORIENTED_EDGE ( 'NONE', *, *, #121, .F. ) ;
#125 = ORIENTED_EDGE ( 'NONE', *, *, #98, .F. ) ;
#126 = FACE_OUTER_BOUND ( 'NONE', #20, .T. ) ;
#127 = CIRCLE ( 'NONE', #260, 4.099999999999999645 ) ;
#128 = DIRECTION ( 'NONE',  ( -0.000000000000000000, -0.000000000000000000, -1.000000000000000000 ) ) ;
#129 = DIRECTION ( 'NONE',  ( -1.000000000000000000, 0.000000000000000000, 0.000000000000000000 ) ) ;
#130 = CARTESIAN_POINT ( 'NONE',  ( -4.099999999999999645, 0.000000000000000000, 205.0000000000000284 ) ) ;
#131 = AXIS2_PLACEMENT_3D ( 'NONE', #173, #151, #105 ) ;
#132 = PERSON_AND_ORGANIZATION ( #158, #249 ) ;
#133 = CC_DESIGN_PERSON_AND_ORGANIZATION_ASSIGNMENT ( #209, #116, ( #248 ) ) ;
#134 = APPROVAL_STATUS ( 'not_yet_approved' ) ;
#135 = PERSON_AND_ORGANIZATION ( #158, #249 ) ;
#136 = CIRCLE ( 'NONE', #131, 4.099999999999999645 ) ;
#137 = ORIENTED_EDGE ( 'NONE', *, *, #152, .F. ) ;
#138 = PERSON_AND_ORGANIZATION ( #158, #249 ) ;
#139 = EDGE_LOOP ( 'NONE', ( #18, #161 ) ) ;
#140 = DATE_AND_TIME ( #231, #219 ) ;
#141 = EDGE_LOOP ( 'NONE', ( #41, #89, #46, #291 ) ) ;
#142 = AXIS2_PLACEMENT_3D ( 'NONE', #1, #2, #99 ) ;
#143 = CC_DESIGN_DATE_AND_TIME_ASSIGNMENT ( #67, #37, ( #261 ) ) ;
#144 = VERTEX_POINT ( 'NONE', #32 ) ;
#145 = DIRECTION ( 'NONE',  ( -1.000000000000000000, 1.224646799147353454E-16, 0.000000000000000000 ) ) ;
#146 = ORIENTED_EDGE ( 'NONE', *, *, #77, .T. ) ;
#147 = VERTEX_POINT ( 'NONE', #197 ) ;
#148 = EDGE_CURVE ( 'NONE', #23, #75, #26, .T. ) ;
#149 = FACE_OUTER_BOUND ( 'NONE', #25, .T. ) ;
#150 = CARTESIAN_POINT ( 'NONE',  ( 0.000000000000000000, 0.000000000000000000, 5.000000000000000000 ) ) ;
#151 = DIRECTION ( 'NONE',  ( 0.000000000000000000, 0.000000000000000000, 1.000000000000000000 ) ) ;
#152 = EDGE_CURVE ( 'NONE', #28, #147, #230, .T. ) ;
#153 = DIRECTION ( 'NONE',  ( 1.000000000000000000, 0.000000000000000000, 0.000000000000000000 ) ) ;
#154 = DIRECTION ( 'NONE',  ( 0.000000000000000000, 0.000000000000000000, 1.000000000000000000 ) ) ;
#155 =( NAMED_UNIT ( * ) PLANE_ANGLE_UNIT ( ) SI_UNIT ( $, .RADIAN. ) );
#156 = DIRECTION ( 'NONE',  ( 0.000000000000000000, 0.000000000000000000, 1.000000000000000000 ) ) ;
#157 = PERSON_AND_ORGANIZATION ( #158, #249 ) ;
#158 = PERSON ( 'NEURÈENÝ', 'NEURÈENÝ', 'NEURÈENÝ', ('NEURÈENÝ'), ('NEURÈENÝ'), ('NEURÈENÝ') ) ;
#159 = EDGE_CURVE ( 'NONE', #75, #144, #190, .T. ) ;
#160 = PERSON_AND_ORGANIZATION ( #158, #249 ) ;
#161 = ORIENTED_EDGE ( 'NONE', *, *, #267, .T. ) ;
#162 = EDGE_LOOP ( 'NONE', ( #39, #76, #253, #117 ) ) ;
#163 = CARTESIAN_POINT ( 'NONE',  ( -7.000000000000000000, 0.000000000000000000, 5.000000000000000000 ) ) ;
#164 = AXIS2_PLACEMENT_3D ( 'NONE', #57, #295, #153 ) ;
#165 = CC_DESIGN_SECURITY_CLASSIFICATION ( #273, ( #297 ) ) ;
#166 = FACE_OUTER_BOUND ( 'NONE', #186, .T. ) ;
#167 = FACE_OUTER_BOUND ( 'NONE', #192, .T. ) ;
#168 = DIRECTION ( 'NONE',  ( 1.000000000000000000, 0.000000000000000000, 0.000000000000000000 ) ) ;
#169 = APPROVAL_PERSON_ORGANIZATION ( #135, #181, #185 ) ;
#170 = DIRECTION ( 'NONE',  ( 0.000000000000000000, 0.000000000000000000, 1.000000000000000000 ) ) ;
#171 = APPROVAL ( #134, 'NEURÈENÝ' ) ;
#172 = FACE_OUTER_BOUND ( 'NONE', #162, .T. ) ;
#173 = CARTESIAN_POINT ( 'NONE',  ( 0.000000000000000000, 0.000000000000000000, 5.200000000000009948 ) ) ;
#174 = CARTESIAN_POINT ( 'NONE',  ( 4.299999999999998934, 0.000000000000000000, 5.200000000000009948 ) ) ;
#175 = CARTESIAN_POINT ( 'NONE',  ( 0.000000000000000000, 0.000000000000000000, 5.000000000000000000 ) ) ;
#176 = DESIGN_CONTEXT ( 'detailed design', #83, 'design' ) ;
#177 = CARTESIAN_POINT ( 'NONE',  ( 7.000000000000000000, 8.572527594031473190E-16, 0.000000000000000000 ) ) ;
#178 = VECTOR ( 'NONE', #247, 1000.000000000000000 ) ;
#179 = LOCAL_TIME ( 14, 32, 37.00000000000000000, #276 ) ;
#180 = COORDINATED_UNIVERSAL_TIME_OFFSET ( 1, 0, .AHEAD. ) ;
#181 = APPROVAL ( #44, 'NEURÈENÝ' ) ;
#182 = CALENDAR_DATE ( 2022, 7, 7 ) ;
#183 = ORIENTED_EDGE ( 'NONE', *, *, #290, .F. ) ;
#184 = CIRCLE ( 'NONE', #223, 7.000000000000000000 ) ;
#185 = APPROVAL_ROLE ( '' ) ;
#186 = EDGE_LOOP ( 'NONE', ( #193, #258, #68, #27 ) ) ;
#187 = ADVANCED_FACE ( 'NONE', ( #59, #84 ), #35, .T. ) ;
#188 = CARTESIAN_POINT ( 'NONE',  ( -7.000000000000000000, 0.000000000000000000, 0.000000000000000000 ) ) ;
#189 = LINE ( 'NONE', #54, #234 ) ;
#190 = CIRCLE ( 'NONE', #164, 4.299999999999998934 ) ;
#191 = DIRECTION ( 'NONE',  ( 1.000000000000000000, 0.000000000000000000, 0.000000000000000000 ) ) ;
#192 = EDGE_LOOP ( 'NONE', ( #301, #235 ) ) ;
#193 = ORIENTED_EDGE ( 'NONE', *, *, #77, .F. ) ;
#194 = CC_DESIGN_APPROVAL ( #181, ( #273 ) ) ;
#195 = ADVANCED_FACE ( 'NONE', ( #58 ), #31, .F. ) ;
#196 = CARTESIAN_POINT ( 'NONE',  ( -4.099999999999999645, 0.000000000000000000, 5.200000000000009948 ) ) ;
#197 = CARTESIAN_POINT ( 'NONE',  ( -7.000000000000000000, 0.000000000000000000, 5.000000000000000000 ) ) ;
#198 = AXIS2_PLACEMENT_3D ( 'NONE', #174, #298, #7 ) ;
#199 = CYLINDRICAL_SURFACE ( 'NONE', #53, 4.099999999999999645 ) ;
#200 = EDGE_CURVE ( 'NONE', #205, #119, #184, .T. ) ;
#201 = DIRECTION ( 'NONE',  ( 0.000000000000000000, 0.000000000000000000, 1.000000000000000000 ) ) ;
#202 = APPLICATION_PROTOCOL_DEFINITION ( 'international standard', 'config_control_design', 1994, #83 ) ;
#203 = CLOSED_SHELL ( 'NONE', ( #61, #216, #115, #104, #187, #12, #212, #6, #195 ) ) ;
#204 = AXIS2_PLACEMENT_3D ( 'NONE', #50, #263, #191 ) ;
#205 = VERTEX_POINT ( 'NONE', #177 ) ;
#206 = CC_DESIGN_APPROVAL ( #171, ( #261 ) ) ;
#207 = COORDINATED_UNIVERSAL_TIME_OFFSET ( 1, 0, .AHEAD. ) ;
#208 = VERTEX_POINT ( 'NONE', #272 ) ;
#209 = PERSON_AND_ORGANIZATION ( #158, #249 ) ;
#210 = ORIENTED_EDGE ( 'NONE', *, *, #98, .T. ) ;
#211 = APPROVAL_DATE_TIME ( #140, #181 ) ;
#212 = ADVANCED_FACE ( 'NONE', ( #172 ), #222, .T. ) ;
#213 = DIRECTION ( 'NONE',  ( -1.000000000000000000, 0.000000000000000000, 0.000000000000000000 ) ) ;
#214 = DIRECTION ( 'NONE',  ( -0.000000000000000000, -0.000000000000000000, -1.000000000000000000 ) ) ;
#215 = CIRCLE ( 'NONE', #243, 7.000000000000000000 ) ;
#216 = ADVANCED_FACE ( 'NONE', ( #126 ), #199, .T. ) ;
#217 = CARTESIAN_POINT ( 'NONE',  ( 4.299999999999998934, 0.000000000000000000, 5.000000000000005329 ) ) ;
#218 = AXIS2_PLACEMENT_3D ( 'NONE', #33, #224, #271 ) ;
#219 = LOCAL_TIME ( 14, 32, 37.00000000000000000, #282 ) ;
#220 = ORIENTED_EDGE ( 'NONE', *, *, #152, .T. ) ;
#221 = CARTESIAN_POINT ( 'NONE',  ( 4.099999999999999645, 5.021051876504147385E-16, 5.200000000000009948 ) ) ;
#222 = CYLINDRICAL_SURFACE ( 'NONE', #10, 4.099999999999999645 ) ;
#223 = AXIS2_PLACEMENT_3D ( 'NONE', #5, #154, #226 ) ;
#224 = DIRECTION ( 'NONE',  ( 0.000000000000000000, 0.000000000000000000, 1.000000000000000000 ) ) ;
#225 = CARTESIAN_POINT ( 'NONE',  ( 0.000000000000000000, 0.000000000000000000, 205.0000000000000284 ) ) ;
#226 = DIRECTION ( 'NONE',  ( 1.000000000000000000, 0.000000000000000000, 0.000000000000000000 ) ) ;
#227 = CARTESIAN_POINT ( 'NONE',  ( -4.099999999999999645, 0.000000000000000000, 205.0000000000000284 ) ) ;
#228 = MECHANICAL_CONTEXT ( 'NONE', #52, 'mechanical' ) ;
#229 = APPROVAL_STATUS ( 'not_yet_approved' ) ;
#230 = CIRCLE ( 'NONE', #296, 7.000000000000000000 ) ;
#231 = CALENDAR_DATE ( 2022, 7, 7 ) ;
#232 = ORIENTED_EDGE ( 'NONE', *, *, #256, .T. ) ;
#233 = ORIENTED_EDGE ( 'NONE', *, *, #38, .T. ) ;
#234 = VECTOR ( 'NONE', #101, 1000.000000000000000 ) ;
#235 = ORIENTED_EDGE ( 'NONE', *, *, #200, .F. ) ;
#236 = CC_DESIGN_PERSON_AND_ORGANIZATION_ASSIGNMENT ( #96, #15, ( #297 ) ) ;
#237 = PLANE ( 'NONE',  #69 ) ;
#238 = VERTEX_POINT ( 'NONE', #130 ) ;
#239 = LOCAL_TIME ( 14, 32, 37.00000000000000000, #180 ) ;
#240 = DIRECTION ( 'NONE',  ( 1.000000000000000000, 0.000000000000000000, -0.000000000000000000 ) ) ;
#241 = EDGE_CURVE ( 'NONE', #238, #281, #246, .T. ) ;
#242 = DIRECTION ( 'NONE',  ( 0.000000000000000000, 0.000000000000000000, 1.000000000000000000 ) ) ;
#243 = AXIS2_PLACEMENT_3D ( 'NONE', #289, #242, #24 ) ;
#244 = CARTESIAN_POINT ( 'NONE',  ( 0.000000000000000000, 0.000000000000000000, 205.0000000000000284 ) ) ;
#245 = DIRECTION ( 'NONE',  ( 0.000000000000000000, 0.000000000000000000, 1.000000000000000000 ) ) ;
#246 = LINE ( 'NONE', #227, #178 ) ;
#247 = DIRECTION ( 'NONE',  ( -0.000000000000000000, -0.000000000000000000, -1.000000000000000000 ) ) ;
#248 = PRODUCT ( '1a91', '1a91', '', ( #228 ) ) ;
#249 = ORGANIZATION ( 'NEURÈENÝ', 'NEURÈENÝ', '' ) ;
#250 = PRODUCT_RELATED_PRODUCT_CATEGORY ( 'detail', '', ( #248 ) ) ;
#251 = ORIENTED_EDGE ( 'NONE', *, *, #45, .F. ) ;
#252 = DIRECTION ( 'NONE',  ( 0.000000000000000000, 0.000000000000000000, 1.000000000000000000 ) ) ;
#253 = ORIENTED_EDGE ( 'NONE', *, *, #241, .T. ) ;
#254 = APPROVAL_PERSON_ORGANIZATION ( #160, #171, #300 ) ;
#255 = PERSON_AND_ORGANIZATION_ROLE ( 'creator' ) ;
#256 = EDGE_CURVE ( 'NONE', #238, #208, #127, .T. ) ;
#257 = CARTESIAN_POINT ( 'NONE',  ( 0.000000000000000000, 0.000000000000000000, 0.000000000000000000 ) ) ;
#258 = ORIENTED_EDGE ( 'NONE', *, *, #299, .F. ) ;
#259 = EDGE_LOOP ( 'NONE', ( #232, #210 ) ) ;
#260 = AXIS2_PLACEMENT_3D ( 'NONE', #244, #156, #78 ) ;
#261 = PRODUCT_DEFINITION ( 'NEZNÁMÝ', '', #297, #176 ) ;
#262 = DIRECTION ( 'NONE',  ( -0.000000000000000000, -0.000000000000000000, -1.000000000000000000 ) ) ;
#263 = DIRECTION ( 'NONE',  ( 0.000000000000000000, 0.000000000000000000, 1.000000000000000000 ) ) ;
#264 = ADVANCED_BREP_SHAPE_REPRESENTATION ( '1a91', ( #82, #286 ), #72 ) ;
#265 = CARTESIAN_POINT ( 'NONE',  ( 0.000000000000000000, 0.000000000000000000, 5.000000000000000000 ) ) ;
#266 = CIRCLE ( 'NONE', #204, 4.099999999999999645 ) ;
#267 = EDGE_CURVE ( 'NONE', #144, #75, #47, .T. ) ;
#268 = DIRECTION ( 'NONE',  ( 0.000000000000000000, 0.000000000000000000, 1.000000000000000000 ) ) ;
#269 = DIRECTION ( 'NONE',  ( 1.000000000000000000, 0.000000000000000000, 0.000000000000000000 ) ) ;
#270 = DIRECTION ( 'NONE',  ( 1.000000000000000000, 0.000000000000000000, -0.000000000000000000 ) ) ;
#271 = DIRECTION ( 'NONE',  ( 1.000000000000000000, 0.000000000000000000, 0.000000000000000000 ) ) ;
#272 = CARTESIAN_POINT ( 'NONE',  ( 4.099999999999999645, 5.021051876504147385E-16, 205.0000000000000284 ) ) ;
#273 = SECURITY_CLASSIFICATION ( '', '', #118 ) ;
#274 = CC_DESIGN_DATE_AND_TIME_ASSIGNMENT ( #93, #90, ( #273 ) ) ;
#275 = PERSON_AND_ORGANIZATION_ROLE ( 'classification_officer' ) ;
#276 = COORDINATED_UNIVERSAL_TIME_OFFSET ( 1, 0, .AHEAD. ) ;
#277 = DATE_AND_TIME ( #62, #239 ) ;
#278 = EDGE_CURVE ( 'NONE', #281, #23, #136, .T. ) ;
#279 = AXIS2_PLACEMENT_3D ( 'NONE', #175, #85, #270 ) ;
#280 =( NAMED_UNIT ( * ) SI_UNIT ( $, .STERADIAN. ) SOLID_ANGLE_UNIT ( ) );
#281 = VERTEX_POINT ( 'NONE', #196 ) ;
#282 = COORDINATED_UNIVERSAL_TIME_OFFSET ( 1, 0, .AHEAD. ) ;
#283 = ORIENTED_EDGE ( 'NONE', *, *, #299, .T. ) ;
#284 = CIRCLE ( 'NONE', #14, 0.1999999999999996503 ) ;
#285 = LINE ( 'NONE', #163, #80 ) ;
#286 = AXIS2_PLACEMENT_3D ( 'NONE', #257, #252, #13 ) ;
#287 = FACE_OUTER_BOUND ( 'NONE', #141, .T. ) ;
#288 = ORIENTED_EDGE ( 'NONE', *, *, #241, .F. ) ;
#289 = CARTESIAN_POINT ( 'NONE',  ( 0.000000000000000000, 0.000000000000000000, 0.000000000000000000 ) ) ;
#290 = EDGE_CURVE ( 'NONE', #23, #281, #114, .T. ) ;
#291 = ORIENTED_EDGE ( 'NONE', *, *, #148, .F. ) ;
#292 = DIRECTION ( 'NONE',  ( 1.000000000000000000, 0.000000000000000000, 0.000000000000000000 ) ) ;
#293 = APPROVAL ( #229, 'NEURÈENÝ' ) ;
#294 = DIRECTION ( 'NONE',  ( -0.000000000000000000, -0.000000000000000000, -1.000000000000000000 ) ) ;
#295 = DIRECTION ( 'NONE',  ( -0.000000000000000000, -0.000000000000000000, -1.000000000000000000 ) ) ;
#296 = AXIS2_PLACEMENT_3D ( 'NONE', #106, #201, #269 ) ;
#297 = PRODUCT_DEFINITION_FORMATION_WITH_SPECIFIED_SOURCE ( 'LIBOVOLNÝ', '', #248, .NOT_KNOWN. ) ;
#298 = DIRECTION ( 'NONE',  ( 0.000000000000000000, -1.000000000000000000, 0.000000000000000000 ) ) ;
#299 = EDGE_CURVE ( 'NONE', #147, #28, #302, .T. ) ;
#300 = APPROVAL_ROLE ( '' ) ;
#301 = ORIENTED_EDGE ( 'NONE', *, *, #17, .F. ) ;
#302 = CIRCLE ( 'NONE', #218, 7.000000000000000000 ) ;
#303 = CALENDAR_DATE ( 2022, 7, 7 ) ;
#304 = DATE_AND_TIME ( #182, #179 ) ;
#305 = ORIENTED_EDGE ( 'NONE', *, *, #290, .T. ) ;
#306 = APPROVAL_DATE_TIME ( #277, #293 ) ;
#307 = ORIENTED_EDGE ( 'NONE', *, *, #200, .T. ) ;
ENDSEC;
END-ISO-10303-21;
