ISO-10303-21;
HEADER;
FILE_DESCRIPTION (( 'STEP AP203' ),
    '1' );
FILE_NAME ('d5e1.STEP',
    '2022-07-07T12:39:38',
    ( '' ),
    ( '' ),
    'SwSTEP 2.0',
    'SolidWorks 2019',
    '' );
FILE_SCHEMA (( 'CONFIG_CONTROL_DESIGN' ));
ENDSEC;

DATA;
#1 = DIRECTION ( 'NONE',  ( 0.000000000000000000, 0.000000000000000000, 1.000000000000000000 ) ) ;
#2 = DIRECTION ( 'NONE',  ( 1.000000000000000000, 0.000000000000000000, 0.000000000000000000 ) ) ;
#3 = APPLICATION_PROTOCOL_DEFINITION ( 'international standard', 'config_control_design', 1994, #231 ) ;
#4 = APPROVAL_ROLE ( '' ) ;
#5 = CC_DESIGN_PERSON_AND_ORGANIZATION_ASSIGNMENT ( #30, #152, ( #246 ) ) ;
#6 = ORIENTED_EDGE ( 'NONE', *, *, #10, .T. ) ;
#7 = CC_DESIGN_APPROVAL ( #42, ( #122 ) ) ;
#8 = CARTESIAN_POINT ( 'NONE',  ( -3.250000000000000444, 0.000000000000000000, 5.199999999999996625 ) ) ;
#9 = VERTEX_POINT ( 'NONE', #172 ) ;
#10 = EDGE_CURVE ( 'NONE', #144, #60, #225, .T. ) ;
#11 = FACE_OUTER_BOUND ( 'NONE', #12, .T. ) ;
#12 = EDGE_LOOP ( 'NONE', ( #296, #222, #191, #265 ) ) ;
#13 = CARTESIAN_POINT ( 'NONE',  ( 0.000000000000000000, 0.000000000000000000, 0.000000000000000000 ) ) ;
#14 = FACE_OUTER_BOUND ( 'NONE', #101, .T. ) ;
#15 = ADVANCED_FACE ( 'NONE', ( #128 ), #39, .T. ) ;
#16 = SHAPE_DEFINITION_REPRESENTATION ( #193, #77 ) ;
#17 = DIRECTION ( 'NONE',  ( -0.000000000000000000, -0.000000000000000000, -1.000000000000000000 ) ) ;
#18 = CARTESIAN_POINT ( 'NONE',  ( -6.000000000000000888, 0.000000000000000000, 5.000000000000000000 ) ) ;
#19 = SECURITY_CLASSIFICATION ( '', '', #227 ) ;
#20 = CARTESIAN_POINT ( 'NONE',  ( 0.000000000000000000, 0.000000000000000000, 105.0000000000000142 ) ) ;
#21 = CIRCLE ( 'NONE', #188, 6.000000000000000888 ) ;
#22 = ADVANCED_FACE ( 'NONE', ( #245, #62 ), #151, .T. ) ;
#23 = CARTESIAN_POINT ( 'NONE',  ( 0.000000000000000000, 0.000000000000000000, 105.0000000000000142 ) ) ;
#24 = APPROVAL_DATE_TIME ( #202, #42 ) ;
#25 = FACE_OUTER_BOUND ( 'NONE', #148, .T. ) ;
#26 = CIRCLE ( 'NONE', #78, 6.000000000000000888 ) ;
#27 = CALENDAR_DATE ( 2022, 7, 7 ) ;
#28 = AXIS2_PLACEMENT_3D ( 'NONE', #13, #238, #182 ) ;
#29 = DIRECTION ( 'NONE',  ( 1.000000000000000000, 0.000000000000000000, 0.000000000000000000 ) ) ;
#30 = PERSON_AND_ORGANIZATION ( #208, #164 ) ;
#31 = EDGE_CURVE ( 'NONE', #57, #299, #306, .T. ) ;
#32 = AXIS2_PLACEMENT_3D ( 'NONE', #20, #307, #93 ) ;
#33 = CIRCLE ( 'NONE', #266, 6.000000000000000888 ) ;
#34 = EDGE_LOOP ( 'NONE', ( #142, #187 ) ) ;
#35 = ORIENTED_EDGE ( 'NONE', *, *, #113, .F. ) ;
#36 = CARTESIAN_POINT ( 'NONE',  ( 3.250000000000000444, 3.980102097228898231E-16, 105.0000000000000142 ) ) ;
#37 = ADVANCED_FACE ( 'NONE', ( #14 ), #207, .F. ) ;
#38 = EDGE_LOOP ( 'NONE', ( #199, #61 ) ) ;
#39 = CYLINDRICAL_SURFACE ( 'NONE', #241, 3.250000000000000444 ) ;
#40 = DATE_AND_TIME ( #290, #147 ) ;
#41 = CC_DESIGN_APPROVAL ( #70, ( #246 ) ) ;
#42 = APPROVAL ( #63, 'NEURÈENÝ' ) ;
#43 = DIRECTION ( 'NONE',  ( 1.000000000000000000, 0.000000000000000000, -0.000000000000000000 ) ) ;
#44 = DIRECTION ( 'NONE',  ( 1.000000000000000000, 0.000000000000000000, 0.000000000000000000 ) ) ;
#45 = PERSON_AND_ORGANIZATION ( #208, #164 ) ;
#46 = CARTESIAN_POINT ( 'NONE',  ( -3.250000000000000444, 0.000000000000000000, 105.0000000000000142 ) ) ;
#47 = CARTESIAN_POINT ( 'NONE',  ( 0.000000000000000000, 0.000000000000000000, 5.000000000000000000 ) ) ;
#48 = CARTESIAN_POINT ( 'NONE',  ( 3.450000000000000178, 0.000000000000000000, 5.199999999999996625 ) ) ;
#49 = PERSON_AND_ORGANIZATION ( #208, #164 ) ;
#50 = CC_DESIGN_PERSON_AND_ORGANIZATION_ASSIGNMENT ( #141, #76, ( #19 ) ) ;
#51 = APPLICATION_PROTOCOL_DEFINITION ( 'international standard', 'config_control_design', 1994, #53 ) ;
#52 = CIRCLE ( 'NONE', #55, 6.000000000000000888 ) ;
#53 = APPLICATION_CONTEXT ( 'configuration controlled 3d designs of mechanical parts and assemblies' ) ;
#54 = ORIENTED_EDGE ( 'NONE', *, *, #244, .T. ) ;
#55 = AXIS2_PLACEMENT_3D ( 'NONE', #92, #158, #29 ) ;
#56 = VECTOR ( 'NONE', #272, 1000.000000000000000 ) ;
#57 = VERTEX_POINT ( 'NONE', #175 ) ;
#58 = ORIENTED_EDGE ( 'NONE', *, *, #143, .T. ) ;
#59 = EDGE_CURVE ( 'NONE', #124, #203, #21, .T. ) ;
#60 = VERTEX_POINT ( 'NONE', #8 ) ;
#61 = ORIENTED_EDGE ( 'NONE', *, *, #239, .T. ) ;
#62 = FACE_OUTER_BOUND ( 'NONE', #38, .T. ) ;
#63 = APPROVAL_STATUS ( 'not_yet_approved' ) ;
#64 = CIRCLE ( 'NONE', #186, 3.450000000000000178 ) ;
#65 = LOCAL_TIME ( 14, 39, 38.00000000000000000, #134 ) ;
#66 = CARTESIAN_POINT ( 'NONE',  ( 0.000000000000000000, 0.000000000000000000, 0.000000000000000000 ) ) ;
#67 = CALENDAR_DATE ( 2022, 7, 7 ) ;
#68 = CARTESIAN_POINT ( 'NONE',  ( 6.000000000000000888, 7.347880794884120722E-16, 5.000000000000000000 ) ) ;
#69 = DIRECTION ( 'NONE',  ( 1.000000000000000000, 0.000000000000000000, 0.000000000000000000 ) ) ;
#70 = APPROVAL ( #89, 'NEURÈENÝ' ) ;
#71 = CARTESIAN_POINT ( 'NONE',  ( 0.000000000000000000, 0.000000000000000000, 105.0000000000000142 ) ) ;
#72 = FACE_OUTER_BOUND ( 'NONE', #268, .T. ) ;
#73 = AXIS2_PLACEMENT_3D ( 'NONE', #302, #252, #43 ) ;
#74 = EDGE_CURVE ( 'NONE', #144, #9, #286, .T. ) ;
#75 = DIRECTION ( 'NONE',  ( -1.000000000000000000, 0.000000000000000000, 0.000000000000000000 ) ) ;
#76 = PERSON_AND_ORGANIZATION_ROLE ( 'classification_officer' ) ;
#77 = ADVANCED_BREP_SHAPE_REPRESENTATION ( 'd5e1', ( #234, #28 ), #213 ) ;
#78 = AXIS2_PLACEMENT_3D ( 'NONE', #281, #1, #69 ) ;
#79 = ORIENTED_EDGE ( 'NONE', *, *, #82, .F. ) ;
#80 = ORIENTED_EDGE ( 'NONE', *, *, #143, .F. ) ;
#81 = CC_DESIGN_APPROVAL ( #273, ( #19 ) ) ;
#82 = EDGE_CURVE ( 'NONE', #9, #150, #271, .T. ) ;
#83 = DIRECTION ( 'NONE',  ( 0.000000000000000000, 0.000000000000000000, 1.000000000000000000 ) ) ;
#84 = DIRECTION ( 'NONE',  ( 0.000000000000000000, 0.000000000000000000, 1.000000000000000000 ) ) ;
#85 = CIRCLE ( 'NONE', #123, 3.250000000000000444 ) ;
#86 = CARTESIAN_POINT ( 'NONE',  ( 0.000000000000000000, 0.000000000000000000, 5.199999999999996625 ) ) ;
#87 = ADVANCED_FACE ( 'NONE', ( #196 ), #126, .F. ) ;
#88 = ORIENTED_EDGE ( 'NONE', *, *, #260, .T. ) ;
#89 = APPROVAL_STATUS ( 'not_yet_approved' ) ;
#90 = APPROVAL_DATE_TIME ( #40, #273 ) ;
#91 = DIRECTION ( 'NONE',  ( 0.000000000000000000, -1.000000000000000000, 0.000000000000000000 ) ) ;
#92 = CARTESIAN_POINT ( 'NONE',  ( 0.000000000000000000, 0.000000000000000000, 5.000000000000000000 ) ) ;
#93 = DIRECTION ( 'NONE',  ( 1.000000000000000000, 0.000000000000000000, -0.000000000000000000 ) ) ;
#94 = DIRECTION ( 'NONE',  ( -0.000000000000000000, -0.000000000000000000, -1.000000000000000000 ) ) ;
#95 = APPROVAL_DATE_TIME ( #184, #70 ) ;
#96 = ADVANCED_FACE ( 'NONE', ( #11 ), #226, .F. ) ;
#97 = DIRECTION ( 'NONE',  ( 1.000000000000000000, 0.000000000000000000, 0.000000000000000000 ) ) ;
#98 = AXIS2_PLACEMENT_3D ( 'NONE', #178, #179, #97 ) ;
#99 = CALENDAR_DATE ( 2022, 7, 7 ) ;
#100 = COORDINATED_UNIVERSAL_TIME_OFFSET ( 1, 0, .AHEAD. ) ;
#101 = EDGE_LOOP ( 'NONE', ( #248, #54, #218, #35 ) ) ;
#102 = DESIGN_CONTEXT ( 'detailed design', #53, 'design' ) ;
#103 = ORIENTED_EDGE ( 'NONE', *, *, #31, .T. ) ;
#104 = CARTESIAN_POINT ( 'NONE',  ( 0.000000000000000000, 0.000000000000000000, 5.000000000000000000 ) ) ;
#105 = DIRECTION ( 'NONE',  ( -0.000000000000000000, -0.000000000000000000, -1.000000000000000000 ) ) ;
#106 = ORIENTED_EDGE ( 'NONE', *, *, #133, .T. ) ;
#107 = AXIS2_PLACEMENT_3D ( 'NONE', #71, #156, #2 ) ;
#108 = ORIENTED_EDGE ( 'NONE', *, *, #293, .F. ) ;
#109 = AXIS2_PLACEMENT_3D ( 'NONE', #104, #129, #224 ) ;
#110 = COORDINATED_UNIVERSAL_TIME_OFFSET ( 1, 0, .AHEAD. ) ;
#111 = VERTEX_POINT ( 'NONE', #210 ) ;
#112 = DIRECTION ( 'NONE',  ( 1.000000000000000000, 0.000000000000000000, 0.000000000000000000 ) ) ;
#113 = EDGE_CURVE ( 'NONE', #150, #57, #130, .T. ) ;
#114 = DIRECTION ( 'NONE',  ( 1.000000000000000000, 0.000000000000000000, 0.000000000000000000 ) ) ;
#115 = DIRECTION ( 'NONE',  ( -0.000000000000000000, -0.000000000000000000, -1.000000000000000000 ) ) ;
#116 = DATE_AND_TIME ( #99, #180 ) ;
#117 = CARTESIAN_POINT ( 'NONE',  ( 0.000000000000000000, 0.000000000000000000, 5.000000000000000000 ) ) ;
#118 = AXIS2_PLACEMENT_3D ( 'NONE', #177, #257, #236 ) ;
#119 = PERSON_AND_ORGANIZATION_ROLE ( 'creator' ) ;
#120 = CARTESIAN_POINT ( 'NONE',  ( -3.450000000000000178, 4.225031457058368824E-16, 4.999999999999998224 ) ) ;
#121 = PERSON_AND_ORGANIZATION ( #208, #164 ) ;
#122 = PRODUCT_DEFINITION ( 'NEZNÁMÝ', '', #246, #102 ) ;
#123 = AXIS2_PLACEMENT_3D ( 'NONE', #206, #181, #112 ) ;
#124 = VERTEX_POINT ( 'NONE', #214 ) ;
#125 = DIRECTION ( 'NONE',  ( 1.000000000000000000, 0.000000000000000000, 0.000000000000000000 ) ) ;
#126 = PLANE ( 'NONE',  #195 ) ;
#127 = ADVANCED_FACE ( 'NONE', ( #72 ), #154, .T. ) ;
#128 = FACE_OUTER_BOUND ( 'NONE', #189, .T. ) ;
#129 = DIRECTION ( 'NONE',  ( -0.000000000000000000, -0.000000000000000000, -1.000000000000000000 ) ) ;
#130 = CIRCLE ( 'NONE', #235, 0.1999999999999996503 ) ;
#131 = PERSON_AND_ORGANIZATION ( #208, #164 ) ;
#132 = DIRECTION ( 'NONE',  ( -1.000000000000000000, 0.000000000000000000, 0.000000000000000000 ) ) ;
#133 = EDGE_CURVE ( 'NONE', #203, #124, #26, .T. ) ;
#134 = COORDINATED_UNIVERSAL_TIME_OFFSET ( 1, 0, .AHEAD. ) ;
#135 = LINE ( 'NONE', #68, #190 ) ;
#136 = DIRECTION ( 'NONE',  ( 1.000000000000000000, 0.000000000000000000, 0.000000000000000000 ) ) ;
#137 = DIRECTION ( 'NONE',  ( -0.000000000000000000, -0.000000000000000000, -1.000000000000000000 ) ) ;
#138 = CARTESIAN_POINT ( 'NONE',  ( -6.000000000000000888, 0.000000000000000000, 0.000000000000000000 ) ) ;
#139 = PERSON_AND_ORGANIZATION ( #208, #164 ) ;
#140 =( LENGTH_UNIT ( ) NAMED_UNIT ( * ) SI_UNIT ( .MILLI., .METRE. ) );
#141 = PERSON_AND_ORGANIZATION ( #208, #164 ) ;
#142 = ORIENTED_EDGE ( 'NONE', *, *, #133, .F. ) ;
#143 = EDGE_CURVE ( 'NONE', #9, #144, #240, .T. ) ;
#144 = VERTEX_POINT ( 'NONE', #46 ) ;
#145 = AXIS2_PLACEMENT_3D ( 'NONE', #194, #83, #166 ) ;
#146 = CARTESIAN_POINT ( 'NONE',  ( -3.250000000000000444, 0.000000000000000000, 105.0000000000000142 ) ) ;
#147 = LOCAL_TIME ( 14, 39, 38.00000000000000000, #100 ) ;
#148 = EDGE_LOOP ( 'NONE', ( #270, #162, #185, #254 ) ) ;
#149 = EDGE_CURVE ( 'NONE', #111, #124, #135, .T. ) ;
#150 = VERTEX_POINT ( 'NONE', #229 ) ;
#151 = PLANE ( 'NONE',  #73 ) ;
#152 = PERSON_AND_ORGANIZATION_ROLE ( 'creator' ) ;
#153 = DIRECTION ( 'NONE',  ( -1.000000000000000000, 0.000000000000000000, 0.000000000000000000 ) ) ;
#154 = PLANE ( 'NONE',  #32 ) ;
#155 = CARTESIAN_POINT ( 'NONE',  ( 0.000000000000000000, 0.000000000000000000, 5.000000000000000000 ) ) ;
#156 = DIRECTION ( 'NONE',  ( 0.000000000000000000, 0.000000000000000000, 1.000000000000000000 ) ) ;
#157 = CYLINDRICAL_SURFACE ( 'NONE', #258, 6.000000000000000888 ) ;
#158 = DIRECTION ( 'NONE',  ( 0.000000000000000000, 0.000000000000000000, 1.000000000000000000 ) ) ;
#159 = DATE_TIME_ROLE ( 'classification_date' ) ;
#160 = PRODUCT_RELATED_PRODUCT_CATEGORY ( 'detail', '', ( #247 ) ) ;
#161 = ORIENTED_EDGE ( 'NONE', *, *, #149, .F. ) ;
#162 = ORIENTED_EDGE ( 'NONE', *, *, #149, .T. ) ;
#163 = VERTEX_POINT ( 'NONE', #228 ) ;
#164 = ORGANIZATION ( 'NEURÈENÝ', 'NEURÈENÝ', '' ) ;
#165 = ORIENTED_EDGE ( 'NONE', *, *, #168, .T. ) ;
#166 = DIRECTION ( 'NONE',  ( 1.000000000000000000, 0.000000000000000000, 0.000000000000000000 ) ) ;
#167 = DIRECTION ( 'NONE',  ( 1.000000000000000000, 0.000000000000000000, -0.000000000000000000 ) ) ;
#168 = EDGE_CURVE ( 'NONE', #163, #203, #259, .T. ) ;
#169 = VECTOR ( 'NONE', #94, 1000.000000000000000 ) ;
#170 = APPROVAL_PERSON_ORGANIZATION ( #204, #42, #251 ) ;
#171 = DIRECTION ( 'NONE',  ( 0.000000000000000000, 0.000000000000000000, 1.000000000000000000 ) ) ;
#172 = CARTESIAN_POINT ( 'NONE',  ( 3.250000000000000444, 3.980102097228898231E-16, 105.0000000000000142 ) ) ;
#173 = EDGE_CURVE ( 'NONE', #299, #57, #64, .T. ) ;
#174 = CALENDAR_DATE ( 2022, 7, 7 ) ;
#175 = CARTESIAN_POINT ( 'NONE',  ( 3.450000000000000178, 0.000000000000000000, 4.999999999999998224 ) ) ;
#176 = CIRCLE ( 'NONE', #267, 3.250000000000000444 ) ;
#177 = CARTESIAN_POINT ( 'NONE',  ( -3.450000000000000178, 4.225031457058368824E-16, 5.199999999999996625 ) ) ;
#178 = CARTESIAN_POINT ( 'NONE',  ( 0.000000000000000000, 0.000000000000000000, 5.199999999999996625 ) ) ;
#179 = DIRECTION ( 'NONE',  ( 0.000000000000000000, 0.000000000000000000, 1.000000000000000000 ) ) ;
#180 = LOCAL_TIME ( 14, 39, 38.00000000000000000, #237 ) ;
#181 = DIRECTION ( 'NONE',  ( 0.000000000000000000, 0.000000000000000000, 1.000000000000000000 ) ) ;
#182 = DIRECTION ( 'NONE',  ( 1.000000000000000000, 0.000000000000000000, 0.000000000000000000 ) ) ;
#183 = FACE_OUTER_BOUND ( 'NONE', #289, .T. ) ;
#184 = DATE_AND_TIME ( #27, #263 ) ;
#185 = ORIENTED_EDGE ( 'NONE', *, *, #59, .T. ) ;
#186 = AXIS2_PLACEMENT_3D ( 'NONE', #47, #17, #114 ) ;
#187 = ORIENTED_EDGE ( 'NONE', *, *, #59, .F. ) ;
#188 = AXIS2_PLACEMENT_3D ( 'NONE', #66, #171, #125 ) ;
#189 = EDGE_LOOP ( 'NONE', ( #80, #250, #216, #223 ) ) ;
#190 = VECTOR ( 'NONE', #255, 1000.000000000000000 ) ;
#191 = ORIENTED_EDGE ( 'NONE', *, *, #113, .T. ) ;
#192 = LOCAL_TIME ( 14, 39, 38.00000000000000000, #110 ) ;
#193 = PRODUCT_DEFINITION_SHAPE ( 'NONE', 'NONE',  #122 ) ;
#194 = CARTESIAN_POINT ( 'NONE',  ( 0.000000000000000000, 0.000000000000000000, 105.0000000000000142 ) ) ;
#195 = AXIS2_PLACEMENT_3D ( 'NONE', #298, #84, #167 ) ;
#196 = FACE_OUTER_BOUND ( 'NONE', #34, .T. ) ;
#197 = CARTESIAN_POINT ( 'NONE',  ( 0.000000000000000000, 0.000000000000000000, 105.0000000000000142 ) ) ;
#198 = AXIS2_PLACEMENT_3D ( 'NONE', #23, #115, #132 ) ;
#199 = ORIENTED_EDGE ( 'NONE', *, *, #293, .T. ) ;
#200 = ADVANCED_FACE ( 'NONE', ( #304 ), #157, .T. ) ;
#201 = VECTOR ( 'NONE', #105, 1000.000000000000000 ) ;
#202 = DATE_AND_TIME ( #174, #192 ) ;
#203 = VERTEX_POINT ( 'NONE', #138 ) ;
#204 = PERSON_AND_ORGANIZATION ( #208, #164 ) ;
#205 = APPROVAL_PERSON_ORGANIZATION ( #121, #273, #4 ) ;
#206 = CARTESIAN_POINT ( 'NONE',  ( 0.000000000000000000, 0.000000000000000000, 5.199999999999996625 ) ) ;
#207 = TOROIDAL_SURFACE ( 'NONE', #295, 3.450000000000000178, 0.2000000000000000111 ) ;
#208 = PERSON ( 'NEURÈENÝ', 'NEURÈENÝ', 'NEURÈENÝ', ('NEURÈENÝ'), ('NEURÈENÝ'), ('NEURÈENÝ') ) ;
#209 = EDGE_CURVE ( 'NONE', #150, #60, #85, .T. ) ;
#210 = CARTESIAN_POINT ( 'NONE',  ( 6.000000000000000888, 7.347880794884120722E-16, 5.000000000000000000 ) ) ;
#211 = CARTESIAN_POINT ( 'NONE',  ( 0.000000000000000000, 0.000000000000000000, 5.000000000000000000 ) ) ;
#212 = COORDINATED_UNIVERSAL_TIME_OFFSET ( 1, 0, .AHEAD. ) ;
#213 =( GEOMETRIC_REPRESENTATION_CONTEXT ( 3 ) GLOBAL_UNCERTAINTY_ASSIGNED_CONTEXT ( ( #292 ) ) GLOBAL_UNIT_ASSIGNED_CONTEXT ( ( #140, #301, #253 ) ) REPRESENTATION_CONTEXT ( 'NONE', 'WORKASPACE' ) );
#214 = CARTESIAN_POINT ( 'NONE',  ( 6.000000000000000888, 7.347880794884120722E-16, 0.000000000000000000 ) ) ;
#215 = CC_DESIGN_PERSON_AND_ORGANIZATION_ASSIGNMENT ( #49, #262, ( #247 ) ) ;
#216 = ORIENTED_EDGE ( 'NONE', *, *, #209, .T. ) ;
#217 = APPROVAL_STATUS ( 'not_yet_approved' ) ;
#218 = ORIENTED_EDGE ( 'NONE', *, *, #31, .F. ) ;
#219 = CC_DESIGN_DATE_AND_TIME_ASSIGNMENT ( #303, #159, ( #19 ) ) ;
#220 = DIRECTION ( 'NONE',  ( 1.000000000000000000, 0.000000000000000000, 0.000000000000000000 ) ) ;
#221 = AXIS2_PLACEMENT_3D ( 'NONE', #117, #287, #75 ) ;
#222 = ORIENTED_EDGE ( 'NONE', *, *, #209, .F. ) ;
#223 = ORIENTED_EDGE ( 'NONE', *, *, #10, .F. ) ;
#224 = DIRECTION ( 'NONE',  ( 1.000000000000000000, 0.000000000000000000, 0.000000000000000000 ) ) ;
#225 = LINE ( 'NONE', #146, #201 ) ;
#226 = TOROIDAL_SURFACE ( 'NONE', #98, 3.450000000000000178, 0.2000000000000000111 ) ;
#227 = SECURITY_CLASSIFICATION_LEVEL ( 'unclassified' ) ;
#228 = CARTESIAN_POINT ( 'NONE',  ( -6.000000000000000888, 0.000000000000000000, 5.000000000000000000 ) ) ;
#229 = CARTESIAN_POINT ( 'NONE',  ( 3.250000000000000444, 3.980102097228898231E-16, 5.199999999999996625 ) ) ;
#230 = ADVANCED_FACE ( 'NONE', ( #183 ), #261, .T. ) ;
#231 = APPLICATION_CONTEXT ( 'configuration controlled 3d designs of mechanical parts and assemblies' ) ;
#232 = DIRECTION ( 'NONE',  ( 0.000000000000000000, 0.000000000000000000, 1.000000000000000000 ) ) ;
#233 = DIRECTION ( 'NONE',  ( -1.000000000000000000, 0.000000000000000000, 0.000000000000000000 ) ) ;
#234 = MANIFOLD_SOLID_BREP ( 'Zaoblit1', #249 ) ;
#235 = AXIS2_PLACEMENT_3D ( 'NONE', #48, #91, #280 ) ;
#236 = DIRECTION ( 'NONE',  ( -1.000000000000000000, 1.224646799147350742E-16, 0.000000000000000000 ) ) ;
#237 = COORDINATED_UNIVERSAL_TIME_OFFSET ( 1, 0, .AHEAD. ) ;
#238 = DIRECTION ( 'NONE',  ( 0.000000000000000000, 0.000000000000000000, 1.000000000000000000 ) ) ;
#239 = EDGE_CURVE ( 'NONE', #111, #163, #33, .T. ) ;
#240 = CIRCLE ( 'NONE', #107, 3.250000000000000444 ) ;
#241 = AXIS2_PLACEMENT_3D ( 'NONE', #197, #274, #153 ) ;
#242 = EDGE_LOOP ( 'NONE', ( #161, #108, #165, #106 ) ) ;
#243 = ORIENTED_EDGE ( 'NONE', *, *, #74, .F. ) ;
#244 = EDGE_CURVE ( 'NONE', #60, #299, #282, .T. ) ;
#245 = FACE_BOUND ( 'NONE', #300, .T. ) ;
#246 = PRODUCT_DEFINITION_FORMATION_WITH_SPECIFIED_SOURCE ( 'LIBOVOLNÝ', '', #247, .NOT_KNOWN. ) ;
#247 = PRODUCT ( 'd5e1', 'd5e1', '', ( #285 ) ) ;
#248 = ORIENTED_EDGE ( 'NONE', *, *, #260, .F. ) ;
#249 = CLOSED_SHELL ( 'NONE', ( #37, #15, #269, #200, #22, #87, #230, #127, #96 ) ) ;
#250 = ORIENTED_EDGE ( 'NONE', *, *, #82, .T. ) ;
#251 = APPROVAL_ROLE ( '' ) ;
#252 = DIRECTION ( 'NONE',  ( 0.000000000000000000, 0.000000000000000000, 1.000000000000000000 ) ) ;
#253 =( NAMED_UNIT ( * ) SI_UNIT ( $, .STERADIAN. ) SOLID_ANGLE_UNIT ( ) );
#254 = ORIENTED_EDGE ( 'NONE', *, *, #168, .F. ) ;
#255 = DIRECTION ( 'NONE',  ( -0.000000000000000000, -0.000000000000000000, -1.000000000000000000 ) ) ;
#256 = CC_DESIGN_PERSON_AND_ORGANIZATION_ASSIGNMENT ( #45, #288, ( #246 ) ) ;
#257 = DIRECTION ( 'NONE',  ( 1.224646799147353207E-16, 1.000000000000000000, -0.000000000000000000 ) ) ;
#258 = AXIS2_PLACEMENT_3D ( 'NONE', #155, #137, #233 ) ;
#259 = LINE ( 'NONE', #18, #169 ) ;
#260 = EDGE_CURVE ( 'NONE', #60, #150, #176, .T. ) ;
#261 = CYLINDRICAL_SURFACE ( 'NONE', #198, 3.250000000000000444 ) ;
#262 = PERSON_AND_ORGANIZATION_ROLE ( 'design_owner' ) ;
#263 = LOCAL_TIME ( 14, 39, 38.00000000000000000, #212 ) ;
#264 = CC_DESIGN_DATE_AND_TIME_ASSIGNMENT ( #116, #278, ( #122 ) ) ;
#265 = ORIENTED_EDGE ( 'NONE', *, *, #173, .F. ) ;
#266 = AXIS2_PLACEMENT_3D ( 'NONE', #211, #284, #136 ) ;
#267 = AXIS2_PLACEMENT_3D ( 'NONE', #279, #232, #44 ) ;
#268 = EDGE_LOOP ( 'NONE', ( #294, #58 ) ) ;
#269 = ADVANCED_FACE ( 'NONE', ( #25 ), #305, .T. ) ;
#270 = ORIENTED_EDGE ( 'NONE', *, *, #239, .F. ) ;
#271 = LINE ( 'NONE', #36, #56 ) ;
#272 = DIRECTION ( 'NONE',  ( -0.000000000000000000, -0.000000000000000000, -1.000000000000000000 ) ) ;
#273 = APPROVAL ( #217, 'NEURÈENÝ' ) ;
#274 = DIRECTION ( 'NONE',  ( -0.000000000000000000, -0.000000000000000000, -1.000000000000000000 ) ) ;
#275 = APPROVAL_ROLE ( '' ) ;
#276 = DIRECTION ( 'NONE',  ( 0.000000000000000000, 0.000000000000000000, 1.000000000000000000 ) ) ;
#277 = CC_DESIGN_SECURITY_CLASSIFICATION ( #19, ( #246 ) ) ;
#278 = DATE_TIME_ROLE ( 'creation_date' ) ;
#279 = CARTESIAN_POINT ( 'NONE',  ( 0.000000000000000000, 0.000000000000000000, 5.199999999999996625 ) ) ;
#280 = DIRECTION ( 'NONE',  ( 0.000000000000000000, 0.000000000000000000, -1.000000000000000000 ) ) ;
#281 = CARTESIAN_POINT ( 'NONE',  ( 0.000000000000000000, 0.000000000000000000, 0.000000000000000000 ) ) ;
#282 = CIRCLE ( 'NONE', #118, 0.2000000000000000944 ) ;
#283 = CC_DESIGN_PERSON_AND_ORGANIZATION_ASSIGNMENT ( #139, #119, ( #122 ) ) ;
#284 = DIRECTION ( 'NONE',  ( 0.000000000000000000, 0.000000000000000000, 1.000000000000000000 ) ) ;
#285 = MECHANICAL_CONTEXT ( 'NONE', #231, 'mechanical' ) ;
#286 = CIRCLE ( 'NONE', #145, 3.250000000000000444 ) ;
#287 = DIRECTION ( 'NONE',  ( -0.000000000000000000, -0.000000000000000000, -1.000000000000000000 ) ) ;
#288 = PERSON_AND_ORGANIZATION_ROLE ( 'design_supplier' ) ;
#289 = EDGE_LOOP ( 'NONE', ( #79, #243, #6, #88 ) ) ;
#290 = CALENDAR_DATE ( 2022, 7, 7 ) ;
#291 = APPROVAL_PERSON_ORGANIZATION ( #131, #70, #275 ) ;
#292 = UNCERTAINTY_MEASURE_WITH_UNIT (LENGTH_MEASURE( 1.000000000000000082E-05 ), #140, 'distance_accuracy_value', 'NONE');
#293 = EDGE_CURVE ( 'NONE', #163, #111, #52, .T. ) ;
#294 = ORIENTED_EDGE ( 'NONE', *, *, #74, .T. ) ;
#295 = AXIS2_PLACEMENT_3D ( 'NONE', #86, #276, #220 ) ;
#296 = ORIENTED_EDGE ( 'NONE', *, *, #244, .F. ) ;
#297 = ORIENTED_EDGE ( 'NONE', *, *, #173, .T. ) ;
#298 = CARTESIAN_POINT ( 'NONE',  ( 0.000000000000000000, 0.000000000000000000, 0.000000000000000000 ) ) ;
#299 = VERTEX_POINT ( 'NONE', #120 ) ;
#300 = EDGE_LOOP ( 'NONE', ( #103, #297 ) ) ;
#301 =( NAMED_UNIT ( * ) PLANE_ANGLE_UNIT ( ) SI_UNIT ( $, .RADIAN. ) );
#302 = CARTESIAN_POINT ( 'NONE',  ( 0.000000000000000000, 0.000000000000000000, 5.000000000000000000 ) ) ;
#303 = DATE_AND_TIME ( #67, #65 ) ;
#304 = FACE_OUTER_BOUND ( 'NONE', #242, .T. ) ;
#305 = CYLINDRICAL_SURFACE ( 'NONE', #221, 6.000000000000000888 ) ;
#306 = CIRCLE ( 'NONE', #109, 3.450000000000000178 ) ;
#307 = DIRECTION ( 'NONE',  ( 0.000000000000000000, 0.000000000000000000, 1.000000000000000000 ) ) ;
ENDSEC;
END-ISO-10303-21;
