ISO-10303-21;
HEADER;
FILE_DESCRIPTION (( 'STEP AP203' ),
    '1' );
FILE_NAME ('5186.STEP',
    '2022-07-07T12:24:19',
    ( '' ),
    ( '' ),
    'SwSTEP 2.0',
    'SolidWorks 2019',
    '' );
FILE_SCHEMA (( 'CONFIG_CONTROL_DESIGN' ));
ENDSEC;

DATA;
#1 = PERSON_AND_ORGANIZATION ( #184, #241 ) ;
#2 = PERSON_AND_ORGANIZATION ( #184, #241 ) ;
#3 = SECURITY_CLASSIFICATION_LEVEL ( 'unclassified' ) ;
#4 = CARTESIAN_POINT ( 'NONE',  ( 0.000000000000000000, 0.000000000000000000, 5.000000000000000000 ) ) ;
#5 = UNCERTAINTY_MEASURE_WITH_UNIT (LENGTH_MEASURE( 1.000000000000000082E-05 ), #190, 'distance_accuracy_value', 'NONE');
#6 = PRODUCT_DEFINITION_FORMATION_WITH_SPECIFIED_SOURCE ( 'LIBOVOLNÝ', '', #273, .NOT_KNOWN. ) ;
#7 = CARTESIAN_POINT ( 'NONE',  ( 0.000000000000000000, 0.000000000000000000, 505.0000000000000000 ) ) ;
#8 = FACE_OUTER_BOUND ( 'NONE', #182, .T. ) ;
#9 = ORIENTED_EDGE ( 'NONE', *, *, #197, .T. ) ;
#10 = DIRECTION ( 'NONE',  ( 1.000000000000000000, 0.000000000000000000, 0.000000000000000000 ) ) ;
#11 = AXIS2_PLACEMENT_3D ( 'NONE', #7, #270, #78 ) ;
#12 = DIRECTION ( 'NONE',  ( 0.000000000000000000, 0.000000000000000000, 1.000000000000000000 ) ) ;
#13 = EDGE_CURVE ( 'NONE', #274, #93, #52, .T. ) ;
#14 = CARTESIAN_POINT ( 'NONE',  ( -5.500000000000000000, 0.000000000000000000, 505.0000000000000000 ) ) ;
#15 = EDGE_LOOP ( 'NONE', ( #254, #154, #65, #298 ) ) ;
#16 = DIRECTION ( 'NONE',  ( -0.000000000000000000, -0.000000000000000000, -1.000000000000000000 ) ) ;
#17 = ORIENTED_EDGE ( 'NONE', *, *, #79, .F. ) ;
#18 = DIRECTION ( 'NONE',  ( 0.000000000000000000, 0.000000000000000000, 1.000000000000000000 ) ) ;
#19 = VERTEX_POINT ( 'NONE', #177 ) ;
#20 = ORIENTED_EDGE ( 'NONE', *, *, #35, .F. ) ;
#21 = TOROIDAL_SURFACE ( 'NONE', #191, 5.699999999999999289, 0.2000000000000000111 ) ;
#22 = PRODUCT_RELATED_PRODUCT_CATEGORY ( 'detail', '', ( #273 ) ) ;
#23 = PERSON_AND_ORGANIZATION ( #184, #241 ) ;
#24 = PERSON_AND_ORGANIZATION_ROLE ( 'design_owner' ) ;
#25 = CC_DESIGN_DATE_AND_TIME_ASSIGNMENT ( #185, #213, ( #183 ) ) ;
#26 = CALENDAR_DATE ( 2022, 7, 7 ) ;
#27 = AXIS2_PLACEMENT_3D ( 'NONE', #277, #18, #217 ) ;
#28 = CARTESIAN_POINT ( 'NONE',  ( 0.000000000000000000, 0.000000000000000000, 0.000000000000000000 ) ) ;
#29 = ADVANCED_FACE ( 'NONE', ( #300 ), #172, .T. ) ;
#30 = DIRECTION ( 'NONE',  ( 0.000000000000000000, 0.000000000000000000, 1.000000000000000000 ) ) ;
#31 =( GEOMETRIC_REPRESENTATION_CONTEXT ( 3 ) GLOBAL_UNCERTAINTY_ASSIGNED_CONTEXT ( ( #5 ) ) GLOBAL_UNIT_ASSIGNED_CONTEXT ( ( #190, #238, #233 ) ) REPRESENTATION_CONTEXT ( 'NONE', 'WORKASPACE' ) );
#32 = DIRECTION ( 'NONE',  ( 1.000000000000000000, 0.000000000000000000, -0.000000000000000000 ) ) ;
#33 = CARTESIAN_POINT ( 'NONE',  ( 0.000000000000000000, 0.000000000000000000, 505.0000000000000000 ) ) ;
#34 = EDGE_LOOP ( 'NONE', ( #95, #228, #223, #201 ) ) ;
#35 = EDGE_CURVE ( 'NONE', #305, #19, #38, .T. ) ;
#36 = APPROVAL_STATUS ( 'not_yet_approved' ) ;
#37 = AXIS2_PLACEMENT_3D ( 'NONE', #224, #108, #85 ) ;
#38 = LINE ( 'NONE', #125, #74 ) ;
#39 = ORIENTED_EDGE ( 'NONE', *, *, #79, .T. ) ;
#40 = CARTESIAN_POINT ( 'NONE',  ( 8.000000000000000000, 9.797174393178825657E-16, 5.000000000000000000 ) ) ;
#41 = ORIENTED_EDGE ( 'NONE', *, *, #99, .F. ) ;
#42 = DIRECTION ( 'NONE',  ( 1.224646799147353207E-16, 1.000000000000000000, -0.000000000000000000 ) ) ;
#43 = VERTEX_POINT ( 'NONE', #90 ) ;
#44 = AXIS2_PLACEMENT_3D ( 'NONE', #33, #218, #10 ) ;
#45 = EDGE_LOOP ( 'NONE', ( #39, #204 ) ) ;
#46 = MANIFOLD_SOLID_BREP ( 'Zaoblit1', #226 ) ;
#47 = EDGE_CURVE ( 'NONE', #64, #179, #253, .T. ) ;
#48 = APPROVAL_STATUS ( 'not_yet_approved' ) ;
#49 = APPROVAL ( #36, 'NEURÈENÝ' ) ;
#50 = APPROVAL_ROLE ( '' ) ;
#51 = PERSON_AND_ORGANIZATION_ROLE ( 'creator' ) ;
#52 = CIRCLE ( 'NONE', #170, 5.699999999999999289 ) ;
#53 = CC_DESIGN_PERSON_AND_ORGANIZATION_ASSIGNMENT ( #161, #140, ( #6 ) ) ;
#54 = DIRECTION ( 'NONE',  ( 0.000000000000000000, 0.000000000000000000, 1.000000000000000000 ) ) ;
#55 = DIRECTION ( 'NONE',  ( 0.000000000000000000, 0.000000000000000000, 1.000000000000000000 ) ) ;
#56 = CIRCLE ( 'NONE', #269, 5.500000000000000000 ) ;
#57 = DIRECTION ( 'NONE',  ( 1.000000000000000000, 0.000000000000000000, 0.000000000000000000 ) ) ;
#58 = COORDINATED_UNIVERSAL_TIME_OFFSET ( 1, 0, .AHEAD. ) ;
#59 = DIRECTION ( 'NONE',  ( -0.000000000000000000, -0.000000000000000000, -1.000000000000000000 ) ) ;
#60 = CARTESIAN_POINT ( 'NONE',  ( 5.500000000000000000, 6.735557395310442023E-16, 505.0000000000000000 ) ) ;
#61 = ORIENTED_EDGE ( 'NONE', *, *, #35, .T. ) ;
#62 = CIRCLE ( 'NONE', #231, 5.699999999999999289 ) ;
#63 = ORIENTED_EDGE ( 'NONE', *, *, #281, .F. ) ;
#64 = VERTEX_POINT ( 'NONE', #194 ) ;
#65 = ORIENTED_EDGE ( 'NONE', *, *, #94, .T. ) ;
#66 = DIRECTION ( 'NONE',  ( 0.000000000000000000, -1.000000000000000000, 0.000000000000000000 ) ) ;
#67 = EDGE_LOOP ( 'NONE', ( #63, #111, #306, #20 ) ) ;
#68 = VERTEX_POINT ( 'NONE', #180 ) ;
#69 = AXIS2_PLACEMENT_3D ( 'NONE', #255, #42, #135 ) ;
#70 = EDGE_CURVE ( 'NONE', #179, #19, #284, .T. ) ;
#71 = VECTOR ( 'NONE', #222, 1000.000000000000000 ) ;
#72 = APPROVAL_ROLE ( '' ) ;
#73 = MECHANICAL_CONTEXT ( 'NONE', #256, 'mechanical' ) ;
#74 = VECTOR ( 'NONE', #59, 1000.000000000000000 ) ;
#75 = APPROVAL_PERSON_ORGANIZATION ( #23, #287, #50 ) ;
#76 = CARTESIAN_POINT ( 'NONE',  ( 0.000000000000000000, 0.000000000000000000, 5.000000000000000000 ) ) ;
#77 = DIRECTION ( 'NONE',  ( -0.000000000000000000, -0.000000000000000000, -1.000000000000000000 ) ) ;
#78 = DIRECTION ( 'NONE',  ( -1.000000000000000000, 0.000000000000000000, 0.000000000000000000 ) ) ;
#79 = EDGE_CURVE ( 'NONE', #305, #64, #146, .T. ) ;
#80 = CIRCLE ( 'NONE', #258, 0.1999999999999996503 ) ;
#81 = APPROVAL_PERSON_ORGANIZATION ( #162, #187, #72 ) ;
#82 = ORIENTED_EDGE ( 'NONE', *, *, #141, .F. ) ;
#83 = DIRECTION ( 'NONE',  ( 1.000000000000000000, 0.000000000000000000, 0.000000000000000000 ) ) ;
#84 = DATE_AND_TIME ( #236, #307 ) ;
#85 = DIRECTION ( 'NONE',  ( 1.000000000000000000, 0.000000000000000000, 0.000000000000000000 ) ) ;
#86 = APPROVAL_DATE_TIME ( #244, #49 ) ;
#87 = ORIENTED_EDGE ( 'NONE', *, *, #116, .F. ) ;
#88 = CARTESIAN_POINT ( 'NONE',  ( 5.699999999999999289, 0.000000000000000000, 4.999999999999991118 ) ) ;
#89 = ORIENTED_EDGE ( 'NONE', *, *, #264, .T. ) ;
#90 = CARTESIAN_POINT ( 'NONE',  ( -5.500000000000000000, 0.000000000000000000, 5.199999999999982414 ) ) ;
#91 = LOCAL_TIME ( 14, 24, 19.00000000000000000, #164 ) ;
#92 = EDGE_LOOP ( 'NONE', ( #159, #181, #229, #87 ) ) ;
#93 = VERTEX_POINT ( 'NONE', #88 ) ;
#94 = EDGE_CURVE ( 'NONE', #68, #43, #148, .T. ) ;
#95 = ORIENTED_EDGE ( 'NONE', *, *, #109, .F. ) ;
#96 = VECTOR ( 'NONE', #16, 1000.000000000000000 ) ;
#97 = FACE_OUTER_BOUND ( 'NONE', #15, .T. ) ;
#98 = CALENDAR_DATE ( 2022, 7, 7 ) ;
#99 = EDGE_CURVE ( 'NONE', #157, #43, #186, .T. ) ;
#100 = CARTESIAN_POINT ( 'NONE',  ( 0.000000000000000000, 0.000000000000000000, 0.000000000000000000 ) ) ;
#101 = DATE_TIME_ROLE ( 'classification_date' ) ;
#102 = DIRECTION ( 'NONE',  ( 1.000000000000000000, 0.000000000000000000, -0.000000000000000000 ) ) ;
#103 = DIRECTION ( 'NONE',  ( -0.000000000000000000, -0.000000000000000000, -1.000000000000000000 ) ) ;
#104 = DIRECTION ( 'NONE',  ( -0.000000000000000000, -0.000000000000000000, -1.000000000000000000 ) ) ;
#105 = TOROIDAL_SURFACE ( 'NONE', #220, 5.699999999999999289, 0.2000000000000000111 ) ;
#106 = SECURITY_CLASSIFICATION ( '', '', #3 ) ;
#107 = PLANE ( 'NONE',  #250 ) ;
#108 = DIRECTION ( 'NONE',  ( 0.000000000000000000, 0.000000000000000000, 1.000000000000000000 ) ) ;
#109 = EDGE_CURVE ( 'NONE', #114, #68, #56, .T. ) ;
#110 = CARTESIAN_POINT ( 'NONE',  ( 5.699999999999999289, 0.000000000000000000, 5.199999999999982414 ) ) ;
#111 = ORIENTED_EDGE ( 'NONE', *, *, #47, .T. ) ;
#112 = DIRECTION ( 'NONE',  ( 1.000000000000000000, 0.000000000000000000, 0.000000000000000000 ) ) ;
#113 = ORIENTED_EDGE ( 'NONE', *, *, #70, .F. ) ;
#114 = VERTEX_POINT ( 'NONE', #295 ) ;
#115 = CC_DESIGN_SECURITY_CLASSIFICATION ( #106, ( #6 ) ) ;
#116 = EDGE_CURVE ( 'NONE', #157, #93, #80, .T. ) ;
#117 = COORDINATED_UNIVERSAL_TIME_OFFSET ( 1, 0, .AHEAD. ) ;
#118 = CALENDAR_DATE ( 2022, 7, 7 ) ;
#119 = COORDINATED_UNIVERSAL_TIME_OFFSET ( 1, 0, .AHEAD. ) ;
#120 = PERSON_AND_ORGANIZATION_ROLE ( 'creator' ) ;
#121 = PLANE ( 'NONE',  #123 ) ;
#122 = AXIS2_PLACEMENT_3D ( 'NONE', #150, #103, #299 ) ;
#123 = AXIS2_PLACEMENT_3D ( 'NONE', #215, #189, #261 ) ;
#124 = CARTESIAN_POINT ( 'NONE',  ( 0.000000000000000000, 0.000000000000000000, 5.199999999999982414 ) ) ;
#125 = CARTESIAN_POINT ( 'NONE',  ( -8.000000000000000000, 0.000000000000000000, 5.000000000000000000 ) ) ;
#126 = DIRECTION ( 'NONE',  ( 1.000000000000000000, 0.000000000000000000, 0.000000000000000000 ) ) ;
#127 = SHAPE_DEFINITION_REPRESENTATION ( #129, #212 ) ;
#128 = DIRECTION ( 'NONE',  ( 0.000000000000000000, 0.000000000000000000, -1.000000000000000000 ) ) ;
#129 = PRODUCT_DEFINITION_SHAPE ( 'NONE', 'NONE',  #183 ) ;
#130 = LOCAL_TIME ( 14, 24, 19.00000000000000000, #266 ) ;
#131 = CARTESIAN_POINT ( 'NONE',  ( 0.000000000000000000, 0.000000000000000000, 5.000000000000000000 ) ) ;
#132 = CC_DESIGN_PERSON_AND_ORGANIZATION_ASSIGNMENT ( #2, #234, ( #106 ) ) ;
#133 = ORIENTED_EDGE ( 'NONE', *, *, #197, .F. ) ;
#134 = DIRECTION ( 'NONE',  ( -0.000000000000000000, -0.000000000000000000, -1.000000000000000000 ) ) ;
#135 = DIRECTION ( 'NONE',  ( -1.000000000000000000, 1.224646799147353454E-16, 0.000000000000000000 ) ) ;
#136 = EDGE_CURVE ( 'NONE', #43, #157, #206, .T. ) ;
#137 = EDGE_LOOP ( 'NONE', ( #89, #176 ) ) ;
#138 = AXIS2_PLACEMENT_3D ( 'NONE', #4, #104, #173 ) ;
#139 = DIRECTION ( 'NONE',  ( -0.000000000000000000, -0.000000000000000000, -1.000000000000000000 ) ) ;
#140 = PERSON_AND_ORGANIZATION_ROLE ( 'design_supplier' ) ;
#141 = EDGE_CURVE ( 'NONE', #43, #274, #196, .T. ) ;
#142 = APPROVAL_STATUS ( 'not_yet_approved' ) ;
#143 = APPROVAL_DATE_TIME ( #283, #287 ) ;
#144 = FACE_OUTER_BOUND ( 'NONE', #137, .T. ) ;
#145 = DIRECTION ( 'NONE',  ( 0.000000000000000000, 0.000000000000000000, 1.000000000000000000 ) ) ;
#146 = CIRCLE ( 'NONE', #27, 8.000000000000000000 ) ;
#147 = CARTESIAN_POINT ( 'NONE',  ( 5.500000000000000000, 6.735557395310442023E-16, 5.199999999999982414 ) ) ;
#148 = LINE ( 'NONE', #14, #96 ) ;
#149 = CARTESIAN_POINT ( 'NONE',  ( 0.000000000000000000, 0.000000000000000000, 5.199999999999982414 ) ) ;
#150 = CARTESIAN_POINT ( 'NONE',  ( 0.000000000000000000, 0.000000000000000000, 5.000000000000000000 ) ) ;
#151 = ADVANCED_FACE ( 'NONE', ( #225, #293 ), #107, .T. ) ;
#152 = CIRCLE ( 'NONE', #235, 8.000000000000000000 ) ;
#153 = CARTESIAN_POINT ( 'NONE',  ( 0.000000000000000000, 0.000000000000000000, 505.0000000000000000 ) ) ;
#154 = ORIENTED_EDGE ( 'NONE', *, *, #264, .F. ) ;
#155 = DIRECTION ( 'NONE',  ( 1.000000000000000000, 0.000000000000000000, 0.000000000000000000 ) ) ;
#156 = CC_DESIGN_DATE_AND_TIME_ASSIGNMENT ( #84, #101, ( #106 ) ) ;
#157 = VERTEX_POINT ( 'NONE', #147 ) ;
#158 = AXIS2_PLACEMENT_3D ( 'NONE', #219, #12, #155 ) ;
#159 = ORIENTED_EDGE ( 'NONE', *, *, #136, .F. ) ;
#160 = PERSON_AND_ORGANIZATION ( #184, #241 ) ;
#161 = PERSON_AND_ORGANIZATION ( #184, #241 ) ;
#162 = PERSON_AND_ORGANIZATION ( #184, #241 ) ;
#163 = ADVANCED_FACE ( 'NONE', ( #216 ), #168, .T. ) ;
#164 = COORDINATED_UNIVERSAL_TIME_OFFSET ( 1, 0, .AHEAD. ) ;
#165 = AXIS2_PLACEMENT_3D ( 'NONE', #199, #271, #112 ) ;
#166 = APPROVAL_PERSON_ORGANIZATION ( #200, #49, #246 ) ;
#167 = PLANE ( 'NONE',  #178 ) ;
#168 = CYLINDRICAL_SURFACE ( 'NONE', #11, 5.500000000000000000 ) ;
#169 = CARTESIAN_POINT ( 'NONE',  ( 0.000000000000000000, 0.000000000000000000, 5.000000000000000000 ) ) ;
#170 = AXIS2_PLACEMENT_3D ( 'NONE', #131, #134, #203 ) ;
#171 = CIRCLE ( 'NONE', #289, 8.000000000000000000 ) ;
#172 = CYLINDRICAL_SURFACE ( 'NONE', #122, 8.000000000000000000 ) ;
#173 = DIRECTION ( 'NONE',  ( -1.000000000000000000, 0.000000000000000000, 0.000000000000000000 ) ) ;
#174 = CC_DESIGN_PERSON_AND_ORGANIZATION_ASSIGNMENT ( #1, #51, ( #6 ) ) ;
#175 = ORIENTED_EDGE ( 'NONE', *, *, #13, .F. ) ;
#176 = ORIENTED_EDGE ( 'NONE', *, *, #109, .T. ) ;
#177 = CARTESIAN_POINT ( 'NONE',  ( -8.000000000000000000, 0.000000000000000000, 0.000000000000000000 ) ) ;
#178 = AXIS2_PLACEMENT_3D ( 'NONE', #193, #245, #102 ) ;
#179 = VERTEX_POINT ( 'NONE', #192 ) ;
#180 = CARTESIAN_POINT ( 'NONE',  ( -5.500000000000000000, 0.000000000000000000, 505.0000000000000000 ) ) ;
#181 = ORIENTED_EDGE ( 'NONE', *, *, #141, .T. ) ;
#182 = EDGE_LOOP ( 'NONE', ( #133, #113 ) ) ;
#183 = PRODUCT_DEFINITION ( 'NEZNÁMÝ', '', #6, #239 ) ;
#184 = PERSON ( 'NEURÈENÝ', 'NEURÈENÝ', 'NEURÈENÝ', ('NEURÈENÝ'), ('NEURÈENÝ'), ('NEURÈENÝ') ) ;
#185 = DATE_AND_TIME ( #118, #214 ) ;
#186 = CIRCLE ( 'NONE', #37, 5.500000000000000000 ) ;
#187 = APPROVAL ( #48, 'NEURÈENÝ' ) ;
#188 = CARTESIAN_POINT ( 'NONE',  ( -8.000000000000000000, 0.000000000000000000, 5.000000000000000000 ) ) ;
#189 = DIRECTION ( 'NONE',  ( 0.000000000000000000, 0.000000000000000000, 1.000000000000000000 ) ) ;
#190 =( LENGTH_UNIT ( ) NAMED_UNIT ( * ) SI_UNIT ( .MILLI., .METRE. ) );
#191 = AXIS2_PLACEMENT_3D ( 'NONE', #124, #54, #83 ) ;
#192 = CARTESIAN_POINT ( 'NONE',  ( 8.000000000000000000, 9.797174393178825657E-16, 0.000000000000000000 ) ) ;
#193 = CARTESIAN_POINT ( 'NONE',  ( 0.000000000000000000, 0.000000000000000000, 0.000000000000000000 ) ) ;
#194 = CARTESIAN_POINT ( 'NONE',  ( 8.000000000000000000, 9.797174393178825657E-16, 5.000000000000000000 ) ) ;
#195 = FACE_OUTER_BOUND ( 'NONE', #257, .T. ) ;
#196 = CIRCLE ( 'NONE', #69, 0.1999999999999996503 ) ;
#197 = EDGE_CURVE ( 'NONE', #19, #179, #152, .T. ) ;
#198 = CC_DESIGN_APPROVAL ( #287, ( #6 ) ) ;
#199 = CARTESIAN_POINT ( 'NONE',  ( 0.000000000000000000, 0.000000000000000000, 0.000000000000000000 ) ) ;
#200 = PERSON_AND_ORGANIZATION ( #184, #241 ) ;
#201 = ORIENTED_EDGE ( 'NONE', *, *, #94, .F. ) ;
#202 = CC_DESIGN_PERSON_AND_ORGANIZATION_ASSIGNMENT ( #282, #120, ( #183 ) ) ;
#203 = DIRECTION ( 'NONE',  ( 1.000000000000000000, 0.000000000000000000, 0.000000000000000000 ) ) ;
#204 = ORIENTED_EDGE ( 'NONE', *, *, #281, .T. ) ;
#205 = CC_DESIGN_PERSON_AND_ORGANIZATION_ASSIGNMENT ( #160, #24, ( #273 ) ) ;
#206 = CIRCLE ( 'NONE', #158, 5.500000000000000000 ) ;
#207 = LOCAL_TIME ( 14, 24, 19.00000000000000000, #58 ) ;
#208 = ADVANCED_FACE ( 'NONE', ( #292 ), #105, .F. ) ;
#209 = APPLICATION_PROTOCOL_DEFINITION ( 'international standard', 'config_control_design', 1994, #304 ) ;
#210 = AXIS2_PLACEMENT_3D ( 'NONE', #285, #139, #211 ) ;
#211 = DIRECTION ( 'NONE',  ( -1.000000000000000000, 0.000000000000000000, 0.000000000000000000 ) ) ;
#212 = ADVANCED_BREP_SHAPE_REPRESENTATION ( '5186', ( #46, #221 ), #31 ) ;
#213 = DATE_TIME_ROLE ( 'creation_date' ) ;
#214 = LOCAL_TIME ( 14, 24, 19.00000000000000000, #117 ) ;
#215 = CARTESIAN_POINT ( 'NONE',  ( 0.000000000000000000, 0.000000000000000000, 505.0000000000000000 ) ) ;
#216 = FACE_OUTER_BOUND ( 'NONE', #34, .T. ) ;
#217 = DIRECTION ( 'NONE',  ( 1.000000000000000000, 0.000000000000000000, 0.000000000000000000 ) ) ;
#218 = DIRECTION ( 'NONE',  ( 0.000000000000000000, 0.000000000000000000, 1.000000000000000000 ) ) ;
#219 = CARTESIAN_POINT ( 'NONE',  ( 0.000000000000000000, 0.000000000000000000, 5.199999999999982414 ) ) ;
#220 = AXIS2_PLACEMENT_3D ( 'NONE', #149, #240, #126 ) ;
#221 = AXIS2_PLACEMENT_3D ( 'NONE', #28, #288, #232 ) ;
#222 = DIRECTION ( 'NONE',  ( -0.000000000000000000, -0.000000000000000000, -1.000000000000000000 ) ) ;
#223 = ORIENTED_EDGE ( 'NONE', *, *, #99, .T. ) ;
#224 = CARTESIAN_POINT ( 'NONE',  ( 0.000000000000000000, 0.000000000000000000, 5.199999999999982414 ) ) ;
#225 = FACE_BOUND ( 'NONE', #276, .T. ) ;
#226 = CLOSED_SHELL ( 'NONE', ( #230, #163, #29, #259, #151, #243, #303, #296, #208 ) ) ;
#227 = VECTOR ( 'NONE', #272, 1000.000000000000000 ) ;
#228 = ORIENTED_EDGE ( 'NONE', *, *, #279, .T. ) ;
#229 = ORIENTED_EDGE ( 'NONE', *, *, #237, .F. ) ;
#230 = ADVANCED_FACE ( 'NONE', ( #242 ), #21, .F. ) ;
#231 = AXIS2_PLACEMENT_3D ( 'NONE', #169, #77, #290 ) ;
#232 = DIRECTION ( 'NONE',  ( 1.000000000000000000, 0.000000000000000000, 0.000000000000000000 ) ) ;
#233 =( NAMED_UNIT ( * ) SI_UNIT ( $, .STERADIAN. ) SOLID_ANGLE_UNIT ( ) );
#234 = PERSON_AND_ORGANIZATION_ROLE ( 'classification_officer' ) ;
#235 = AXIS2_PLACEMENT_3D ( 'NONE', #100, #145, #57 ) ;
#236 = CALENDAR_DATE ( 2022, 7, 7 ) ;
#237 = EDGE_CURVE ( 'NONE', #93, #274, #62, .T. ) ;
#238 =( NAMED_UNIT ( * ) PLANE_ANGLE_UNIT ( ) SI_UNIT ( $, .RADIAN. ) );
#239 = DESIGN_CONTEXT ( 'detailed design', #304, 'design' ) ;
#240 = DIRECTION ( 'NONE',  ( 0.000000000000000000, 0.000000000000000000, 1.000000000000000000 ) ) ;
#241 = ORGANIZATION ( 'NEURÈENÝ', 'NEURÈENÝ', '' ) ;
#242 = FACE_OUTER_BOUND ( 'NONE', #92, .T. ) ;
#243 = ADVANCED_FACE ( 'NONE', ( #8 ), #167, .F. ) ;
#244 = DATE_AND_TIME ( #297, #207 ) ;
#245 = DIRECTION ( 'NONE',  ( 0.000000000000000000, 0.000000000000000000, 1.000000000000000000 ) ) ;
#246 = APPROVAL_ROLE ( '' ) ;
#247 = DIRECTION ( 'NONE',  ( 1.000000000000000000, 0.000000000000000000, 0.000000000000000000 ) ) ;
#248 = DIRECTION ( 'NONE',  ( 1.000000000000000000, 0.000000000000000000, 0.000000000000000000 ) ) ;
#249 = ORIENTED_EDGE ( 'NONE', *, *, #47, .F. ) ;
#250 = AXIS2_PLACEMENT_3D ( 'NONE', #291, #55, #32 ) ;
#251 = CC_DESIGN_APPROVAL ( #49, ( #106 ) ) ;
#252 = ORIENTED_EDGE ( 'NONE', *, *, #237, .T. ) ;
#253 = LINE ( 'NONE', #40, #71 ) ;
#254 = ORIENTED_EDGE ( 'NONE', *, *, #279, .F. ) ;
#255 = CARTESIAN_POINT ( 'NONE',  ( -5.699999999999999289, 6.980486755139912122E-16, 5.199999999999982414 ) ) ;
#256 = APPLICATION_CONTEXT ( 'configuration controlled 3d designs of mechanical parts and assemblies' ) ;
#257 = EDGE_LOOP ( 'NONE', ( #249, #17, #61, #9 ) ) ;
#258 = AXIS2_PLACEMENT_3D ( 'NONE', #110, #66, #128 ) ;
#259 = ADVANCED_FACE ( 'NONE', ( #195 ), #267, .T. ) ;
#260 = CYLINDRICAL_SURFACE ( 'NONE', #210, 5.500000000000000000 ) ;
#261 = DIRECTION ( 'NONE',  ( 1.000000000000000000, 0.000000000000000000, -0.000000000000000000 ) ) ;
#262 = APPROVAL_DATE_TIME ( #263, #187 ) ;
#263 = DATE_AND_TIME ( #98, #91 ) ;
#264 = EDGE_CURVE ( 'NONE', #68, #114, #301, .T. ) ;
#265 = CC_DESIGN_APPROVAL ( #187, ( #183 ) ) ;
#266 = COORDINATED_UNIVERSAL_TIME_OFFSET ( 1, 0, .AHEAD. ) ;
#267 = CYLINDRICAL_SURFACE ( 'NONE', #138, 8.000000000000000000 ) ;
#268 = CARTESIAN_POINT ( 'NONE',  ( -5.699999999999999289, 6.980486755139912122E-16, 4.999999999999991118 ) ) ;
#269 = AXIS2_PLACEMENT_3D ( 'NONE', #153, #275, #247 ) ;
#270 = DIRECTION ( 'NONE',  ( -0.000000000000000000, -0.000000000000000000, -1.000000000000000000 ) ) ;
#271 = DIRECTION ( 'NONE',  ( 0.000000000000000000, 0.000000000000000000, 1.000000000000000000 ) ) ;
#272 = DIRECTION ( 'NONE',  ( -0.000000000000000000, -0.000000000000000000, -1.000000000000000000 ) ) ;
#273 = PRODUCT ( '5186', '5186', '', ( #73 ) ) ;
#274 = VERTEX_POINT ( 'NONE', #268 ) ;
#275 = DIRECTION ( 'NONE',  ( 0.000000000000000000, 0.000000000000000000, 1.000000000000000000 ) ) ;
#276 = EDGE_LOOP ( 'NONE', ( #252, #278 ) ) ;
#277 = CARTESIAN_POINT ( 'NONE',  ( 0.000000000000000000, 0.000000000000000000, 5.000000000000000000 ) ) ;
#278 = ORIENTED_EDGE ( 'NONE', *, *, #13, .T. ) ;
#279 = EDGE_CURVE ( 'NONE', #114, #157, #294, .T. ) ;
#280 = EDGE_LOOP ( 'NONE', ( #82, #41, #302, #175 ) ) ;
#281 = EDGE_CURVE ( 'NONE', #64, #305, #171, .T. ) ;
#282 = PERSON_AND_ORGANIZATION ( #184, #241 ) ;
#283 = DATE_AND_TIME ( #26, #130 ) ;
#284 = CIRCLE ( 'NONE', #165, 8.000000000000000000 ) ;
#285 = CARTESIAN_POINT ( 'NONE',  ( 0.000000000000000000, 0.000000000000000000, 505.0000000000000000 ) ) ;
#286 = APPLICATION_PROTOCOL_DEFINITION ( 'international standard', 'config_control_design', 1994, #256 ) ;
#287 = APPROVAL ( #142, 'NEURÈENÝ' ) ;
#288 = DIRECTION ( 'NONE',  ( 0.000000000000000000, 0.000000000000000000, 1.000000000000000000 ) ) ;
#289 = AXIS2_PLACEMENT_3D ( 'NONE', #76, #30, #248 ) ;
#290 = DIRECTION ( 'NONE',  ( 1.000000000000000000, 0.000000000000000000, 0.000000000000000000 ) ) ;
#291 = CARTESIAN_POINT ( 'NONE',  ( 0.000000000000000000, 0.000000000000000000, 5.000000000000000000 ) ) ;
#292 = FACE_OUTER_BOUND ( 'NONE', #280, .T. ) ;
#293 = FACE_OUTER_BOUND ( 'NONE', #45, .T. ) ;
#294 = LINE ( 'NONE', #60, #227 ) ;
#295 = CARTESIAN_POINT ( 'NONE',  ( 5.500000000000000000, 6.735557395310442023E-16, 505.0000000000000000 ) ) ;
#296 = ADVANCED_FACE ( 'NONE', ( #144 ), #121, .T. ) ;
#297 = CALENDAR_DATE ( 2022, 7, 7 ) ;
#298 = ORIENTED_EDGE ( 'NONE', *, *, #136, .T. ) ;
#299 = DIRECTION ( 'NONE',  ( -1.000000000000000000, 0.000000000000000000, 0.000000000000000000 ) ) ;
#300 = FACE_OUTER_BOUND ( 'NONE', #67, .T. ) ;
#301 = CIRCLE ( 'NONE', #44, 5.500000000000000000 ) ;
#302 = ORIENTED_EDGE ( 'NONE', *, *, #116, .T. ) ;
#303 = ADVANCED_FACE ( 'NONE', ( #97 ), #260, .T. ) ;
#304 = APPLICATION_CONTEXT ( 'configuration controlled 3d designs of mechanical parts and assemblies' ) ;
#305 = VERTEX_POINT ( 'NONE', #188 ) ;
#306 = ORIENTED_EDGE ( 'NONE', *, *, #70, .T. ) ;
#307 = LOCAL_TIME ( 14, 24, 19.00000000000000000, #119 ) ;
ENDSEC;
END-ISO-10303-21;
