ISO-10303-21;
HEADER;
FILE_DESCRIPTION (( 'STEP AP203' ),
    '1' );
FILE_NAME ('018c.STEP',
    '2022-07-07T12:56:34',
    ( '' ),
    ( '' ),
    'SwSTEP 2.0',
    'SolidWorks 2019',
    '' );
FILE_SCHEMA (( 'CONFIG_CONTROL_DESIGN' ));
ENDSEC;

DATA;
#1 = CARTESIAN_POINT ( 'NONE',  ( 0.000000000000000000, 0.000000000000000000, 2.000000000000000000 ) ) ;
#2 = AXIS2_PLACEMENT_3D ( 'NONE', #24, #191, #285 ) ;
#3 = CC_DESIGN_APPROVAL ( #286, ( #214 ) ) ;
#4 = CARTESIAN_POINT ( 'NONE',  ( 0.000000000000000000, 0.000000000000000000, 2.000000000000000000 ) ) ;
#5 = DIRECTION ( 'NONE',  ( 0.000000000000000000, 0.000000000000000000, 1.000000000000000000 ) ) ;
#6 = DATE_AND_TIME ( #82, #230 ) ;
#7 =( NAMED_UNIT ( * ) PLANE_ANGLE_UNIT ( ) SI_UNIT ( $, .RADIAN. ) );
#8 = ORIENTED_EDGE ( 'NONE', *, *, #227, .F. ) ;
#9 = EDGE_CURVE ( 'NONE', #273, #185, #186, .T. ) ;
#10 = APPLICATION_PROTOCOL_DEFINITION ( 'international standard', 'config_control_design', 1994, #11 ) ;
#11 = APPLICATION_CONTEXT ( 'configuration controlled 3d designs of mechanical parts and assemblies' ) ;
#12 = VERTEX_POINT ( 'NONE', #90 ) ;
#13 = EDGE_LOOP ( 'NONE', ( #149, #21, #177, #195 ) ) ;
#14 = PERSON_AND_ORGANIZATION ( #158, #254 ) ;
#15 = AXIS2_PLACEMENT_3D ( 'NONE', #287, #168, #171 ) ;
#16 = ORIENTED_EDGE ( 'NONE', *, *, #39, .T. ) ;
#17 = FACE_OUTER_BOUND ( 'NONE', #255, .T. ) ;
#18 = EDGE_LOOP ( 'NONE', ( #164, #294 ) ) ;
#19 = LOCAL_TIME ( 14, 56, 34.00000000000000000, #241 ) ;
#20 = ADVANCED_FACE ( 'NONE', ( #228 ), #226, .F. ) ;
#21 = ORIENTED_EDGE ( 'NONE', *, *, #9, .T. ) ;
#22 = CC_DESIGN_DATE_AND_TIME_ASSIGNMENT ( #198, #175, ( #60 ) ) ;
#23 = CARTESIAN_POINT ( 'NONE',  ( -1.250000000000000000, 0.000000000000000000, 2.199999999999993516 ) ) ;
#24 = CARTESIAN_POINT ( 'NONE',  ( 0.000000000000000000, 0.000000000000000000, 0.000000000000000000 ) ) ;
#25 = CIRCLE ( 'NONE', #229, 2.500000000000000000 ) ;
#26 = ADVANCED_FACE ( 'NONE', ( #65 ), #296, .T. ) ;
#27 = AXIS2_PLACEMENT_3D ( 'NONE', #211, #118, #295 ) ;
#28 = CYLINDRICAL_SURFACE ( 'NONE', #248, 1.250000000000000000 ) ;
#29 = CARTESIAN_POINT ( 'NONE',  ( 1.250000000000000000, 1.530808498934191571E-16, 127.0000000000000000 ) ) ;
#30 = FACE_OUTER_BOUND ( 'NONE', #104, .T. ) ;
#31 = DIRECTION ( 'NONE',  ( -0.000000000000000000, -0.000000000000000000, -1.000000000000000000 ) ) ;
#32 = CLOSED_SHELL ( 'NONE', ( #283, #209, #26, #293, #58, #20, #305, #244, #96 ) ) ;
#33 = APPROVAL_ROLE ( '' ) ;
#34 = DIRECTION ( 'NONE',  ( 0.000000000000000000, 0.000000000000000000, 1.000000000000000000 ) ) ;
#35 = PRODUCT_RELATED_PRODUCT_CATEGORY ( 'detail', '', ( #251 ) ) ;
#36 = ORIENTED_EDGE ( 'NONE', *, *, #101, .T. ) ;
#37 = ORIENTED_EDGE ( 'NONE', *, *, #101, .F. ) ;
#38 = CIRCLE ( 'NONE', #220, 1.250000000000000000 ) ;
#39 = EDGE_CURVE ( 'NONE', #185, #154, #68, .T. ) ;
#40 = ORIENTED_EDGE ( 'NONE', *, *, #301, .T. ) ;
#41 = DIRECTION ( 'NONE',  ( 0.000000000000000000, 0.000000000000000000, 1.000000000000000000 ) ) ;
#42 = DIRECTION ( 'NONE',  ( 1.000000000000000000, 0.000000000000000000, -0.000000000000000000 ) ) ;
#43 = LOCAL_TIME ( 14, 56, 34.00000000000000000, #181 ) ;
#44 = CC_DESIGN_PERSON_AND_ORGANIZATION_ASSIGNMENT ( #79, #172, ( #214 ) ) ;
#45 = DIRECTION ( 'NONE',  ( -1.000000000000000000, 0.000000000000000000, 0.000000000000000000 ) ) ;
#46 = CC_DESIGN_PERSON_AND_ORGANIZATION_ASSIGNMENT ( #14, #201, ( #251 ) ) ;
#47 = EDGE_LOOP ( 'NONE', ( #162, #81 ) ) ;
#48 = CARTESIAN_POINT ( 'NONE',  ( -2.500000000000000000, 0.000000000000000000, 2.000000000000000000 ) ) ;
#49 = DIRECTION ( 'NONE',  ( 1.000000000000000000, 0.000000000000000000, -0.000000000000000000 ) ) ;
#50 = DIRECTION ( 'NONE',  ( 0.000000000000000000, 0.000000000000000000, 1.000000000000000000 ) ) ;
#51 = DIRECTION ( 'NONE',  ( 1.000000000000000000, 0.000000000000000000, 0.000000000000000000 ) ) ;
#52 = DIRECTION ( 'NONE',  ( -0.000000000000000000, -0.000000000000000000, -1.000000000000000000 ) ) ;
#53 = SECURITY_CLASSIFICATION_LEVEL ( 'unclassified' ) ;
#54 = EDGE_LOOP ( 'NONE', ( #224, #36, #137, #179 ) ) ;
#55 = CARTESIAN_POINT ( 'NONE',  ( 0.000000000000000000, 0.000000000000000000, 0.000000000000000000 ) ) ;
#56 = EDGE_LOOP ( 'NONE', ( #37, #271, #64, #183 ) ) ;
#57 = AXIS2_PLACEMENT_3D ( 'NONE', #123, #5, #49 ) ;
#58 = ADVANCED_FACE ( 'NONE', ( #249, #87 ), #297, .T. ) ;
#59 = DATE_TIME_ROLE ( 'creation_date' ) ;
#60 = SECURITY_CLASSIFICATION ( '', '', #53 ) ;
#61 = DIRECTION ( 'NONE',  ( 0.000000000000000000, 0.000000000000000000, 1.000000000000000000 ) ) ;
#62 = VERTEX_POINT ( 'NONE', #23 ) ;
#63 = TOROIDAL_SURFACE ( 'NONE', #261, 1.450000000000000178, 0.2000000000000000111 ) ;
#64 = ORIENTED_EDGE ( 'NONE', *, *, #192, .T. ) ;
#65 = FACE_OUTER_BOUND ( 'NONE', #54, .T. ) ;
#66 = CC_DESIGN_APPROVAL ( #112, ( #165 ) ) ;
#67 = CARTESIAN_POINT ( 'NONE',  ( 0.000000000000000000, 0.000000000000000000, 2.000000000000000000 ) ) ;
#68 = CIRCLE ( 'NONE', #174, 0.2000000000000000944 ) ;
#69 = CC_DESIGN_DATE_AND_TIME_ASSIGNMENT ( #80, #59, ( #165 ) ) ;
#70 = DIRECTION ( 'NONE',  ( 1.224646799147353207E-16, 1.000000000000000000, -0.000000000000000000 ) ) ;
#71 = DIRECTION ( 'NONE',  ( -0.000000000000000000, -0.000000000000000000, -1.000000000000000000 ) ) ;
#72 = ADVANCED_BREP_SHAPE_REPRESENTATION ( '018c', ( #139, #125 ), #221 ) ;
#73 = CARTESIAN_POINT ( 'NONE',  ( 0.000000000000000000, 0.000000000000000000, 2.199999999999993516 ) ) ;
#74 = EDGE_CURVE ( 'NONE', #115, #12, #281, .T. ) ;
#75 = LINE ( 'NONE', #48, #199 ) ;
#76 = AXIS2_PLACEMENT_3D ( 'NONE', #274, #61, #206 ) ;
#77 = CARTESIAN_POINT ( 'NONE',  ( -2.500000000000000000, 0.000000000000000000, 2.000000000000000000 ) ) ;
#78 = CC_DESIGN_SECURITY_CLASSIFICATION ( #60, ( #214 ) ) ;
#79 = PERSON_AND_ORGANIZATION ( #158, #254 ) ;
#80 = DATE_AND_TIME ( #103, #278 ) ;
#81 = ORIENTED_EDGE ( 'NONE', *, *, #272, .F. ) ;
#82 = CALENDAR_DATE ( 2022, 7, 7 ) ;
#83 = AXIS2_PLACEMENT_3D ( 'NONE', #73, #121, #142 ) ;
#84 = MECHANICAL_CONTEXT ( 'NONE', #222, 'mechanical' ) ;
#85 = EDGE_CURVE ( 'NONE', #185, #62, #119, .T. ) ;
#86 = PERSON_AND_ORGANIZATION ( #158, #254 ) ;
#87 = FACE_OUTER_BOUND ( 'NONE', #291, .T. ) ;
#88 = EDGE_CURVE ( 'NONE', #12, #115, #207, .T. ) ;
#89 = LOCAL_TIME ( 14, 56, 34.00000000000000000, #178 ) ;
#90 = CARTESIAN_POINT ( 'NONE',  ( 2.500000000000000000, 3.061616997868383141E-16, 2.000000000000000000 ) ) ;
#91 = ORIENTED_EDGE ( 'NONE', *, *, #170, .T. ) ;
#92 = DIRECTION ( 'NONE',  ( 1.000000000000000000, 0.000000000000000000, 0.000000000000000000 ) ) ;
#93 = ORIENTED_EDGE ( 'NONE', *, *, #9, .F. ) ;
#94 = CARTESIAN_POINT ( 'NONE',  ( 0.000000000000000000, 0.000000000000000000, 127.0000000000000000 ) ) ;
#95 = DIRECTION ( 'NONE',  ( -0.000000000000000000, -0.000000000000000000, -1.000000000000000000 ) ) ;
#96 = ADVANCED_FACE ( 'NONE', ( #17 ), #63, .F. ) ;
#97 = DIRECTION ( 'NONE',  ( 1.000000000000000000, 0.000000000000000000, 0.000000000000000000 ) ) ;
#98 = AXIS2_PLACEMENT_3D ( 'NONE', #282, #70, #166 ) ;
#99 = DIRECTION ( 'NONE',  ( 1.000000000000000000, 0.000000000000000000, 0.000000000000000000 ) ) ;
#100 = DIRECTION ( 'NONE',  ( 1.000000000000000000, 0.000000000000000000, 0.000000000000000000 ) ) ;
#101 = EDGE_CURVE ( 'NONE', #12, #256, #203, .T. ) ;
#102 = APPROVAL_DATE_TIME ( #6, #286 ) ;
#103 = CALENDAR_DATE ( 2022, 7, 7 ) ;
#104 = EDGE_LOOP ( 'NONE', ( #159, #40, #173, #133 ) ) ;
#105 = APPROVAL_STATUS ( 'not_yet_approved' ) ;
#106 = VERTEX_POINT ( 'NONE', #169 ) ;
#107 = APPLICATION_PROTOCOL_DEFINITION ( 'international standard', 'config_control_design', 1994, #222 ) ;
#108 = DIRECTION ( 'NONE',  ( 1.000000000000000000, 0.000000000000000000, 0.000000000000000000 ) ) ;
#109 = CC_DESIGN_PERSON_AND_ORGANIZATION_ASSIGNMENT ( #86, #219, ( #165 ) ) ;
#110 = AXIS2_PLACEMENT_3D ( 'NONE', #253, #41, #42 ) ;
#111 = CARTESIAN_POINT ( 'NONE',  ( 1.450000000000000178, 0.000000000000000000, 2.199999999999993516 ) ) ;
#112 = APPROVAL ( #105, 'NEURÈENÝ' ) ;
#113 = DIRECTION ( 'NONE',  ( 0.000000000000000000, -1.000000000000000000, 0.000000000000000000 ) ) ;
#114 = ORIENTED_EDGE ( 'NONE', *, *, #250, .T. ) ;
#115 = VERTEX_POINT ( 'NONE', #77 ) ;
#116 = DIRECTION ( 'NONE',  ( 1.000000000000000000, 0.000000000000000000, 0.000000000000000000 ) ) ;
#117 = CARTESIAN_POINT ( 'NONE',  ( 0.000000000000000000, 0.000000000000000000, 127.0000000000000000 ) ) ;
#118 = DIRECTION ( 'NONE',  ( -0.000000000000000000, -0.000000000000000000, -1.000000000000000000 ) ) ;
#119 = CIRCLE ( 'NONE', #160, 1.250000000000000000 ) ;
#120 = CIRCLE ( 'NONE', #189, 1.250000000000000000 ) ;
#121 = DIRECTION ( 'NONE',  ( 0.000000000000000000, 0.000000000000000000, 1.000000000000000000 ) ) ;
#122 = CC_DESIGN_PERSON_AND_ORGANIZATION_ASSIGNMENT ( #290, #196, ( #214 ) ) ;
#123 = CARTESIAN_POINT ( 'NONE',  ( 0.000000000000000000, 0.000000000000000000, 127.0000000000000000 ) ) ;
#124 = DIRECTION ( 'NONE',  ( -0.000000000000000000, -0.000000000000000000, -1.000000000000000000 ) ) ;
#125 = AXIS2_PLACEMENT_3D ( 'NONE', #55, #34, #108 ) ;
#126 = CALENDAR_DATE ( 2022, 7, 7 ) ;
#127 = VECTOR ( 'NONE', #95, 1000.000000000000000 ) ;
#128 = APPROVAL ( #242, 'NEURÈENÝ' ) ;
#129 = COORDINATED_UNIVERSAL_TIME_OFFSET ( 1, 0, .AHEAD. ) ;
#130 = ORIENTED_EDGE ( 'NONE', *, *, #301, .F. ) ;
#131 = VECTOR ( 'NONE', #212, 1000.000000000000000 ) ;
#132 = SHAPE_DEFINITION_REPRESENTATION ( #307, #72 ) ;
#133 = ORIENTED_EDGE ( 'NONE', *, *, #39, .F. ) ;
#134 = ORIENTED_EDGE ( 'NONE', *, *, #236, .F. ) ;
#135 = DIRECTION ( 'NONE',  ( 0.000000000000000000, 0.000000000000000000, 1.000000000000000000 ) ) ;
#136 = CIRCLE ( 'NONE', #2, 2.500000000000000000 ) ;
#137 = ORIENTED_EDGE ( 'NONE', *, *, #272, .T. ) ;
#138 = ORIENTED_EDGE ( 'NONE', *, *, #74, .T. ) ;
#139 = MANIFOLD_SOLID_BREP ( 'Zaoblit1', #32 ) ;
#140 = DIRECTION ( 'NONE',  ( -1.000000000000000000, 0.000000000000000000, 0.000000000000000000 ) ) ;
#141 = DIRECTION ( 'NONE',  ( 0.000000000000000000, 0.000000000000000000, 1.000000000000000000 ) ) ;
#142 = DIRECTION ( 'NONE',  ( 1.000000000000000000, 0.000000000000000000, 0.000000000000000000 ) ) ;
#143 = CARTESIAN_POINT ( 'NONE',  ( 1.450000000000000178, 0.000000000000000000, 1.999999999999996669 ) ) ;
#144 = CARTESIAN_POINT ( 'NONE',  ( 1.250000000000000000, 1.530808498934191571E-16, 2.199999999999993516 ) ) ;
#145 = AXIS2_PLACEMENT_3D ( 'NONE', #208, #135, #116 ) ;
#146 = PERSON_AND_ORGANIZATION_ROLE ( 'classification_officer' ) ;
#147 = PERSON_AND_ORGANIZATION ( #158, #254 ) ;
#148 = APPROVAL_DATE_TIME ( #267, #112 ) ;
#149 = ORIENTED_EDGE ( 'NONE', *, *, #250, .F. ) ;
#150 = APPROVAL_ROLE ( '' ) ;
#151 = CIRCLE ( 'NONE', #233, 1.450000000000000178 ) ;
#152 = DATE_AND_TIME ( #268, #89 ) ;
#153 = EDGE_CURVE ( 'NONE', #154, #106, #151, .T. ) ;
#154 = VERTEX_POINT ( 'NONE', #143 ) ;
#155 = APPROVAL_PERSON_ORGANIZATION ( #265, #112, #150 ) ;
#156 = CC_DESIGN_PERSON_AND_ORGANIZATION_ASSIGNMENT ( #243, #146, ( #60 ) ) ;
#157 = EDGE_LOOP ( 'NONE', ( #93, #134, #247, #91 ) ) ;
#158 = PERSON ( 'NEURÈENÝ', 'NEURÈENÝ', 'NEURÈENÝ', ('NEURÈENÝ'), ('NEURÈENÝ'), ('NEURÈENÝ') ) ;
#159 = ORIENTED_EDGE ( 'NONE', *, *, #170, .F. ) ;
#160 = AXIS2_PLACEMENT_3D ( 'NONE', #276, #161, #182 ) ;
#161 = DIRECTION ( 'NONE',  ( 0.000000000000000000, 0.000000000000000000, 1.000000000000000000 ) ) ;
#162 = ORIENTED_EDGE ( 'NONE', *, *, #279, .F. ) ;
#163 = AXIS2_PLACEMENT_3D ( 'NONE', #205, #280, #252 ) ;
#164 = ORIENTED_EDGE ( 'NONE', *, *, #153, .T. ) ;
#165 = PRODUCT_DEFINITION ( 'NEZNÁMÝ', '', #214, #176 ) ;
#166 = DIRECTION ( 'NONE',  ( -1.000000000000000000, 1.224646799147353207E-16, 0.000000000000000000 ) ) ;
#167 = AXIS2_PLACEMENT_3D ( 'NONE', #216, #141, #100 ) ;
#168 = DIRECTION ( 'NONE',  ( -0.000000000000000000, -0.000000000000000000, -1.000000000000000000 ) ) ;
#169 = CARTESIAN_POINT ( 'NONE',  ( -1.450000000000000178, 1.775737858763662409E-16, 1.999999999999996669 ) ) ;
#170 = EDGE_CURVE ( 'NONE', #62, #185, #120, .T. ) ;
#171 = DIRECTION ( 'NONE',  ( 1.000000000000000000, 0.000000000000000000, 0.000000000000000000 ) ) ;
#172 = PERSON_AND_ORGANIZATION_ROLE ( 'creator' ) ;
#173 = ORIENTED_EDGE ( 'NONE', *, *, #153, .F. ) ;
#174 = AXIS2_PLACEMENT_3D ( 'NONE', #111, #113, #184 ) ;
#175 = DATE_TIME_ROLE ( 'classification_date' ) ;
#176 = DESIGN_CONTEXT ( 'detailed design', #11, 'design' ) ;
#177 = ORIENTED_EDGE ( 'NONE', *, *, #85, .T. ) ;
#178 = COORDINATED_UNIVERSAL_TIME_OFFSET ( 1, 0, .AHEAD. ) ;
#179 = ORIENTED_EDGE ( 'NONE', *, *, #192, .F. ) ;
#180 =( NAMED_UNIT ( * ) SI_UNIT ( $, .STERADIAN. ) SOLID_ANGLE_UNIT ( ) );
#181 = COORDINATED_UNIVERSAL_TIME_OFFSET ( 1, 0, .AHEAD. ) ;
#182 = DIRECTION ( 'NONE',  ( 1.000000000000000000, 0.000000000000000000, 0.000000000000000000 ) ) ;
#183 = ORIENTED_EDGE ( 'NONE', *, *, #279, .T. ) ;
#184 = DIRECTION ( 'NONE',  ( 0.000000000000000000, 0.000000000000000000, -1.000000000000000000 ) ) ;
#185 = VERTEX_POINT ( 'NONE', #144 ) ;
#186 = LINE ( 'NONE', #202, #217 ) ;
#187 = CARTESIAN_POINT ( 'NONE',  ( 2.500000000000000000, 3.061616997868383141E-16, 0.000000000000000000 ) ) ;
#188 = DIRECTION ( 'NONE',  ( 0.000000000000000000, 0.000000000000000000, 1.000000000000000000 ) ) ;
#189 = AXIS2_PLACEMENT_3D ( 'NONE', #306, #188, #51 ) ;
#190 = DIRECTION ( 'NONE',  ( 0.000000000000000000, 0.000000000000000000, 1.000000000000000000 ) ) ;
#191 = DIRECTION ( 'NONE',  ( 0.000000000000000000, 0.000000000000000000, 1.000000000000000000 ) ) ;
#192 = EDGE_CURVE ( 'NONE', #115, #277, #75, .T. ) ;
#193 = CARTESIAN_POINT ( 'NONE',  ( -2.500000000000000000, 0.000000000000000000, 0.000000000000000000 ) ) ;
#194 = PERSON_AND_ORGANIZATION ( #158, #254 ) ;
#195 = ORIENTED_EDGE ( 'NONE', *, *, #223, .F. ) ;
#196 = PERSON_AND_ORGANIZATION_ROLE ( 'design_supplier' ) ;
#197 = VERTEX_POINT ( 'NONE', #210 ) ;
#198 = DATE_AND_TIME ( #126, #19 ) ;
#199 = VECTOR ( 'NONE', #124, 1000.000000000000000 ) ;
#200 = AXIS2_PLACEMENT_3D ( 'NONE', #4, #52, #262 ) ;
#201 = PERSON_AND_ORGANIZATION_ROLE ( 'design_owner' ) ;
#202 = CARTESIAN_POINT ( 'NONE',  ( 1.250000000000000000, 1.530808498934191571E-16, 127.0000000000000000 ) ) ;
#203 = LINE ( 'NONE', #237, #127 ) ;
#204 = APPROVAL_PERSON_ORGANIZATION ( #194, #286, #33 ) ;
#205 = CARTESIAN_POINT ( 'NONE',  ( 0.000000000000000000, 0.000000000000000000, 0.000000000000000000 ) ) ;
#206 = DIRECTION ( 'NONE',  ( 1.000000000000000000, 0.000000000000000000, 0.000000000000000000 ) ) ;
#207 = CIRCLE ( 'NONE', #76, 2.500000000000000000 ) ;
#208 = CARTESIAN_POINT ( 'NONE',  ( 0.000000000000000000, 0.000000000000000000, 2.000000000000000000 ) ) ;
#209 = ADVANCED_FACE ( 'NONE', ( #304 ), #28, .T. ) ;
#210 = CARTESIAN_POINT ( 'NONE',  ( -1.250000000000000000, 0.000000000000000000, 127.0000000000000000 ) ) ;
#211 = CARTESIAN_POINT ( 'NONE',  ( 0.000000000000000000, 0.000000000000000000, 127.0000000000000000 ) ) ;
#212 = DIRECTION ( 'NONE',  ( -0.000000000000000000, -0.000000000000000000, -1.000000000000000000 ) ) ;
#213 = TOROIDAL_SURFACE ( 'NONE', #83, 1.450000000000000178, 0.2000000000000000111 ) ;
#214 = PRODUCT_DEFINITION_FORMATION_WITH_SPECIFIED_SOURCE ( 'LIBOVOLNÝ', '', #251, .NOT_KNOWN. ) ;
#215 = CYLINDRICAL_SURFACE ( 'NONE', #200, 2.500000000000000000 ) ;
#216 = CARTESIAN_POINT ( 'NONE',  ( 0.000000000000000000, 0.000000000000000000, 127.0000000000000000 ) ) ;
#217 = VECTOR ( 'NONE', #299, 1000.000000000000000 ) ;
#218 =( LENGTH_UNIT ( ) NAMED_UNIT ( * ) SI_UNIT ( .MILLI., .METRE. ) );
#219 = PERSON_AND_ORGANIZATION_ROLE ( 'creator' ) ;
#220 = AXIS2_PLACEMENT_3D ( 'NONE', #117, #190, #238 ) ;
#221 =( GEOMETRIC_REPRESENTATION_CONTEXT ( 3 ) GLOBAL_UNCERTAINTY_ASSIGNED_CONTEXT ( ( #263 ) ) GLOBAL_UNIT_ASSIGNED_CONTEXT ( ( #218, #7, #180 ) ) REPRESENTATION_CONTEXT ( 'NONE', 'WORKASPACE' ) );
#222 = APPLICATION_CONTEXT ( 'configuration controlled 3d designs of mechanical parts and assemblies' ) ;
#223 = EDGE_CURVE ( 'NONE', #197, #62, #284, .T. ) ;
#224 = ORIENTED_EDGE ( 'NONE', *, *, #88, .F. ) ;
#225 = EDGE_LOOP ( 'NONE', ( #266, #114 ) ) ;
#226 = PLANE ( 'NONE',  #163 ) ;
#227 = EDGE_CURVE ( 'NONE', #106, #154, #269, .T. ) ;
#228 = FACE_OUTER_BOUND ( 'NONE', #47, .T. ) ;
#229 = AXIS2_PLACEMENT_3D ( 'NONE', #235, #50, #99 ) ;
#230 = LOCAL_TIME ( 14, 56, 34.00000000000000000, #289 ) ;
#231 = ORIENTED_EDGE ( 'NONE', *, *, #88, .T. ) ;
#232 = DIRECTION ( 'NONE',  ( -0.000000000000000000, -0.000000000000000000, -1.000000000000000000 ) ) ;
#233 = AXIS2_PLACEMENT_3D ( 'NONE', #1, #71, #97 ) ;
#234 = CYLINDRICAL_SURFACE ( 'NONE', #27, 1.250000000000000000 ) ;
#235 = CARTESIAN_POINT ( 'NONE',  ( 0.000000000000000000, 0.000000000000000000, 0.000000000000000000 ) ) ;
#236 = EDGE_CURVE ( 'NONE', #197, #273, #38, .T. ) ;
#237 = CARTESIAN_POINT ( 'NONE',  ( 2.500000000000000000, 3.061616997868383141E-16, 2.000000000000000000 ) ) ;
#238 = DIRECTION ( 'NONE',  ( 1.000000000000000000, 0.000000000000000000, 0.000000000000000000 ) ) ;
#239 = APPROVAL_STATUS ( 'not_yet_approved' ) ;
#240 = AXIS2_PLACEMENT_3D ( 'NONE', #67, #232, #45 ) ;
#241 = COORDINATED_UNIVERSAL_TIME_OFFSET ( 1, 0, .AHEAD. ) ;
#242 = APPROVAL_STATUS ( 'not_yet_approved' ) ;
#243 = PERSON_AND_ORGANIZATION ( #158, #254 ) ;
#244 = ADVANCED_FACE ( 'NONE', ( #259 ), #260, .T. ) ;
#245 = CALENDAR_DATE ( 2022, 7, 7 ) ;
#246 = APPROVAL_DATE_TIME ( #152, #128 ) ;
#247 = ORIENTED_EDGE ( 'NONE', *, *, #223, .T. ) ;
#248 = AXIS2_PLACEMENT_3D ( 'NONE', #94, #31, #140 ) ;
#249 = FACE_BOUND ( 'NONE', #18, .T. ) ;
#250 = EDGE_CURVE ( 'NONE', #273, #197, #258, .T. ) ;
#251 = PRODUCT ( '018c', '018c', '', ( #84 ) ) ;
#252 = DIRECTION ( 'NONE',  ( 1.000000000000000000, 0.000000000000000000, -0.000000000000000000 ) ) ;
#253 = CARTESIAN_POINT ( 'NONE',  ( 0.000000000000000000, 0.000000000000000000, 2.000000000000000000 ) ) ;
#254 = ORGANIZATION ( 'NEURÈENÝ', 'NEURÈENÝ', '' ) ;
#255 = EDGE_LOOP ( 'NONE', ( #130, #302, #16, #8 ) ) ;
#256 = VERTEX_POINT ( 'NONE', #187 ) ;
#257 = FACE_OUTER_BOUND ( 'NONE', #157, .T. ) ;
#258 = CIRCLE ( 'NONE', #167, 1.250000000000000000 ) ;
#259 = FACE_OUTER_BOUND ( 'NONE', #225, .T. ) ;
#260 = PLANE ( 'NONE',  #57 ) ;
#261 = AXIS2_PLACEMENT_3D ( 'NONE', #275, #300, #92 ) ;
#262 = DIRECTION ( 'NONE',  ( -1.000000000000000000, 0.000000000000000000, 0.000000000000000000 ) ) ;
#263 = UNCERTAINTY_MEASURE_WITH_UNIT (LENGTH_MEASURE( 1.000000000000000082E-05 ), #218, 'distance_accuracy_value', 'NONE');
#264 = FACE_OUTER_BOUND ( 'NONE', #56, .T. ) ;
#265 = PERSON_AND_ORGANIZATION ( #158, #254 ) ;
#266 = ORIENTED_EDGE ( 'NONE', *, *, #236, .T. ) ;
#267 = DATE_AND_TIME ( #245, #43 ) ;
#268 = CALENDAR_DATE ( 2022, 7, 7 ) ;
#269 = CIRCLE ( 'NONE', #15, 1.450000000000000178 ) ;
#270 = CIRCLE ( 'NONE', #98, 0.2000000000000000944 ) ;
#271 = ORIENTED_EDGE ( 'NONE', *, *, #74, .F. ) ;
#272 = EDGE_CURVE ( 'NONE', #256, #277, #25, .T. ) ;
#273 = VERTEX_POINT ( 'NONE', #29 ) ;
#274 = CARTESIAN_POINT ( 'NONE',  ( 0.000000000000000000, 0.000000000000000000, 2.000000000000000000 ) ) ;
#275 = CARTESIAN_POINT ( 'NONE',  ( 0.000000000000000000, 0.000000000000000000, 2.199999999999993516 ) ) ;
#276 = CARTESIAN_POINT ( 'NONE',  ( 0.000000000000000000, 0.000000000000000000, 2.199999999999993516 ) ) ;
#277 = VERTEX_POINT ( 'NONE', #193 ) ;
#278 = LOCAL_TIME ( 14, 56, 34.00000000000000000, #129 ) ;
#279 = EDGE_CURVE ( 'NONE', #277, #256, #136, .T. ) ;
#280 = DIRECTION ( 'NONE',  ( 0.000000000000000000, 0.000000000000000000, 1.000000000000000000 ) ) ;
#281 = CIRCLE ( 'NONE', #145, 2.500000000000000000 ) ;
#282 = CARTESIAN_POINT ( 'NONE',  ( -1.450000000000000178, 1.775737858763662163E-16, 2.199999999999993516 ) ) ;
#283 = ADVANCED_FACE ( 'NONE', ( #30 ), #213, .F. ) ;
#284 = LINE ( 'NONE', #288, #131 ) ;
#285 = DIRECTION ( 'NONE',  ( 1.000000000000000000, 0.000000000000000000, 0.000000000000000000 ) ) ;
#286 = APPROVAL ( #239, 'NEURÈENÝ' ) ;
#287 = CARTESIAN_POINT ( 'NONE',  ( 0.000000000000000000, 0.000000000000000000, 2.000000000000000000 ) ) ;
#288 = CARTESIAN_POINT ( 'NONE',  ( -1.250000000000000000, 0.000000000000000000, 127.0000000000000000 ) ) ;
#289 = COORDINATED_UNIVERSAL_TIME_OFFSET ( 1, 0, .AHEAD. ) ;
#290 = PERSON_AND_ORGANIZATION ( #158, #254 ) ;
#291 = EDGE_LOOP ( 'NONE', ( #138, #231 ) ) ;
#292 = APPROVAL_ROLE ( '' ) ;
#293 = ADVANCED_FACE ( 'NONE', ( #264 ), #215, .T. ) ;
#294 = ORIENTED_EDGE ( 'NONE', *, *, #227, .T. ) ;
#295 = DIRECTION ( 'NONE',  ( -1.000000000000000000, 0.000000000000000000, 0.000000000000000000 ) ) ;
#296 = CYLINDRICAL_SURFACE ( 'NONE', #240, 2.500000000000000000 ) ;
#297 = PLANE ( 'NONE',  #110 ) ;
#298 = CC_DESIGN_APPROVAL ( #128, ( #60 ) ) ;
#299 = DIRECTION ( 'NONE',  ( -0.000000000000000000, -0.000000000000000000, -1.000000000000000000 ) ) ;
#300 = DIRECTION ( 'NONE',  ( 0.000000000000000000, 0.000000000000000000, 1.000000000000000000 ) ) ;
#301 = EDGE_CURVE ( 'NONE', #62, #106, #270, .T. ) ;
#302 = ORIENTED_EDGE ( 'NONE', *, *, #85, .F. ) ;
#303 = APPROVAL_PERSON_ORGANIZATION ( #147, #128, #292 ) ;
#304 = FACE_OUTER_BOUND ( 'NONE', #13, .T. ) ;
#305 = ADVANCED_FACE ( 'NONE', ( #257 ), #234, .T. ) ;
#306 = CARTESIAN_POINT ( 'NONE',  ( 0.000000000000000000, 0.000000000000000000, 2.199999999999993516 ) ) ;
#307 = PRODUCT_DEFINITION_SHAPE ( 'NONE', 'NONE',  #165 ) ;
ENDSEC;
END-ISO-10303-21;
