ISO-10303-21;
HEADER;
FILE_DESCRIPTION (( 'STEP AP203' ),
    '1' );
FILE_NAME ('3f1d.STEP',
    '2023-02-12T10:48:55',
    ( '' ),
    ( '' ),
    'SwSTEP 2.0',
    'SolidWorks 2019',
    '' );
FILE_SCHEMA (( 'CONFIG_CONTROL_DESIGN' ));
ENDSEC;

DATA;
#1 = UNCERTAINTY_MEASURE_WITH_UNIT (LENGTH_MEASURE( 1.000000000000000082E-05 ), #151, 'distance_accuracy_value', 'NONE');
#2 = CC_DESIGN_DATE_AND_TIME_ASSIGNMENT ( #11, #137, ( #86 ) ) ;
#3 = CARTESIAN_POINT ( 'NONE',  ( 0.000000000000000000, 0.000000000000000000, 0.000000000000000000 ) ) ;
#4 = CARTESIAN_POINT ( 'NONE',  ( -6.000000000000000888, 0.000000000000000000, 400.0000000000000000 ) ) ;
#5 = DIRECTION ( 'NONE',  ( -0.000000000000000000, -0.000000000000000000, -1.000000000000000000 ) ) ;
#6 = FACE_OUTER_BOUND ( 'NONE', #155, .T. ) ;
#7 = ADVANCED_FACE ( 'NONE', ( #206 ), #29, .T. ) ;
#8 = EDGE_CURVE ( 'NONE', #235, #219, #169, .T. ) ;
#9 = DIRECTION ( 'NONE',  ( 0.000000000000000000, 0.000000000000000000, 1.000000000000000000 ) ) ;
#10 = DATE_AND_TIME ( #28, #89 ) ;
#11 = DATE_AND_TIME ( #123, #162 ) ;
#12 = AXIS2_PLACEMENT_3D ( 'NONE', #44, #158, #82 ) ;
#13 = PERSON_AND_ORGANIZATION ( #130, #34 ) ;
#14 = CARTESIAN_POINT ( 'NONE',  ( 9.000000000000000000, 1.102182119232617714E-15, 0.000000000000000000 ) ) ;
#15 = AXIS2_PLACEMENT_3D ( 'NONE', #241, #224, #121 ) ;
#16 = APPROVAL_PERSON_ORGANIZATION ( #13, #207, #147 ) ;
#17 = DIRECTION ( 'NONE',  ( 0.000000000000000000, 0.000000000000000000, 1.000000000000000000 ) ) ;
#18 = FACE_OUTER_BOUND ( 'NONE', #136, .T. ) ;
#19 = ORIENTED_EDGE ( 'NONE', *, *, #150, .F. ) ;
#20 = ORIENTED_EDGE ( 'NONE', *, *, #8, .T. ) ;
#21 = ORIENTED_EDGE ( 'NONE', *, *, #37, .T. ) ;
#22 = APPLICATION_PROTOCOL_DEFINITION ( 'international standard', 'config_control_design', 1994, #91 ) ;
#23 = PLANE ( 'NONE',  #159 ) ;
#24 = ORIENTED_EDGE ( 'NONE', *, *, #189, .F. ) ;
#25 = APPROVAL_ROLE ( '' ) ;
#26 = LINE ( 'NONE', #4, #93 ) ;
#27 = ADVANCED_FACE ( 'NONE', ( #166, #223 ), #50, .T. ) ;
#28 = CALENDAR_DATE ( 2023, 12, 2 ) ;
#29 = CYLINDRICAL_SURFACE ( 'NONE', #238, 9.000000000000000000 ) ;
#30 = SECURITY_CLASSIFICATION ( '', '', #196 ) ;
#31 = DIRECTION ( 'NONE',  ( 0.000000000000000000, 0.000000000000000000, 1.000000000000000000 ) ) ;
#32 = CARTESIAN_POINT ( 'NONE',  ( -9.000000000000000000, 0.000000000000000000, 7.000000000000000000 ) ) ;
#33 = COORDINATED_UNIVERSAL_TIME_OFFSET ( 1, 0, .AHEAD. ) ;
#34 = ORGANIZATION ( 'NEURÈENÝ', 'NEURÈENÝ', '' ) ;
#35 = CARTESIAN_POINT ( 'NONE',  ( 0.000000000000000000, 0.000000000000000000, 7.000000000000000000 ) ) ;
#36 = ADVANCED_FACE ( 'NONE', ( #240 ), #186, .F. ) ;
#37 = EDGE_CURVE ( 'NONE', #38, #219, #26, .T. ) ;
#38 = VERTEX_POINT ( 'NONE', #160 ) ;
#39 = CARTESIAN_POINT ( 'NONE',  ( -9.000000000000000000, 0.000000000000000000, 0.000000000000000000 ) ) ;
#40 = ORIENTED_EDGE ( 'NONE', *, *, #171, .F. ) ;
#41 = DIRECTION ( 'NONE',  ( 0.000000000000000000, 0.000000000000000000, 1.000000000000000000 ) ) ;
#42 = APPROVAL ( #120, 'NEURÈENÝ' ) ;
#43 = ORIENTED_EDGE ( 'NONE', *, *, #148, .F. ) ;
#44 = CARTESIAN_POINT ( 'NONE',  ( 0.000000000000000000, 0.000000000000000000, 7.000000000000000000 ) ) ;
#45 = EDGE_LOOP ( 'NONE', ( #118, #198, #79, #24 ) ) ;
#46 = AXIS2_PLACEMENT_3D ( 'NONE', #208, #163, #105 ) ;
#47 = CC_DESIGN_APPROVAL ( #143, ( #86 ) ) ;
#48 = ADVANCED_FACE ( 'NONE', ( #6 ), #103, .T. ) ;
#49 = CC_DESIGN_DATE_AND_TIME_ASSIGNMENT ( #247, #144, ( #30 ) ) ;
#50 = PLANE ( 'NONE',  #212 ) ;
#51 = PERSON_AND_ORGANIZATION ( #130, #34 ) ;
#52 = CARTESIAN_POINT ( 'NONE',  ( 6.000000000000000888, 7.347880794884120722E-16, 400.0000000000000000 ) ) ;
#53 = COORDINATED_UNIVERSAL_TIME_OFFSET ( 1, 0, .AHEAD. ) ;
#54 = CIRCLE ( 'NONE', #243, 6.000000000000000888 ) ;
#55 = LINE ( 'NONE', #126, #153 ) ;
#56 = EDGE_CURVE ( 'NONE', #113, #235, #139, .T. ) ;
#57 = CYLINDRICAL_SURFACE ( 'NONE', #188, 6.000000000000000888 ) ;
#58 = AXIS2_PLACEMENT_3D ( 'NONE', #193, #17, #165 ) ;
#59 = AXIS2_PLACEMENT_3D ( 'NONE', #35, #72, #74 ) ;
#60 = DIRECTION ( 'NONE',  ( 0.000000000000000000, 0.000000000000000000, 1.000000000000000000 ) ) ;
#61 =( NAMED_UNIT ( * ) PLANE_ANGLE_UNIT ( ) SI_UNIT ( $, .RADIAN. ) );
#62 = CARTESIAN_POINT ( 'NONE',  ( -6.000000000000000888, 0.000000000000000000, 7.000000000000000000 ) ) ;
#63 = DIRECTION ( 'NONE',  ( 1.000000000000000000, 0.000000000000000000, 0.000000000000000000 ) ) ;
#64 = ORIENTED_EDGE ( 'NONE', *, *, #230, .F. ) ;
#65 = CC_DESIGN_SECURITY_CLASSIFICATION ( #30, ( #134 ) ) ;
#66 = DESIGN_CONTEXT ( 'detailed design', #91, 'design' ) ;
#67 = EDGE_CURVE ( 'NONE', #112, #197, #122, .T. ) ;
#68 = CARTESIAN_POINT ( 'NONE',  ( 0.000000000000000000, 0.000000000000000000, 400.0000000000000000 ) ) ;
#69 = APPROVAL_ROLE ( '' ) ;
#70 = CARTESIAN_POINT ( 'NONE',  ( 0.000000000000000000, 0.000000000000000000, 0.000000000000000000 ) ) ;
#71 = AXIS2_PLACEMENT_3D ( 'NONE', #116, #201, #179 ) ;
#72 = DIRECTION ( 'NONE',  ( 0.000000000000000000, 0.000000000000000000, 1.000000000000000000 ) ) ;
#73 = CC_DESIGN_APPROVAL ( #42, ( #134 ) ) ;
#74 = DIRECTION ( 'NONE',  ( 1.000000000000000000, 0.000000000000000000, 0.000000000000000000 ) ) ;
#75 = COORDINATED_UNIVERSAL_TIME_OFFSET ( 1, 0, .AHEAD. ) ;
#76 = CC_DESIGN_PERSON_AND_ORGANIZATION_ASSIGNMENT ( #94, #195, ( #134 ) ) ;
#77 = CC_DESIGN_PERSON_AND_ORGANIZATION_ASSIGNMENT ( #142, #225, ( #134 ) ) ;
#78 = EDGE_LOOP ( 'NONE', ( #215, #133 ) ) ;
#79 = ORIENTED_EDGE ( 'NONE', *, *, #67, .T. ) ;
#80 = EDGE_CURVE ( 'NONE', #181, #112, #55, .T. ) ;
#81 = ORIENTED_EDGE ( 'NONE', *, *, #80, .F. ) ;
#82 = DIRECTION ( 'NONE',  ( -1.000000000000000000, 0.000000000000000000, 0.000000000000000000 ) ) ;
#83 = CARTESIAN_POINT ( 'NONE',  ( 0.000000000000000000, 0.000000000000000000, 7.000000000000000000 ) ) ;
#84 = CIRCLE ( 'NONE', #71, 9.000000000000000000 ) ;
#85 = COORDINATED_UNIVERSAL_TIME_OFFSET ( 1, 0, .AHEAD. ) ;
#86 = PRODUCT_DEFINITION ( 'NEZNÁMÝ', '', #134, #66 ) ;
#87 = DIRECTION ( 'NONE',  ( -0.000000000000000000, -0.000000000000000000, -1.000000000000000000 ) ) ;
#88 = DIRECTION ( 'NONE',  ( 1.000000000000000000, 0.000000000000000000, 0.000000000000000000 ) ) ;
#89 = LOCAL_TIME ( 11, 48, 55.00000000000000000, #205 ) ;
#90 = CARTESIAN_POINT ( 'NONE',  ( -9.000000000000000000, 0.000000000000000000, 7.000000000000000000 ) ) ;
#91 = APPLICATION_CONTEXT ( 'configuration controlled 3d designs of mechanical parts and assemblies' ) ;
#92 = APPROVAL_STATUS ( 'not_yet_approved' ) ;
#93 = VECTOR ( 'NONE', #187, 1000.000000000000000 ) ;
#94 = PERSON_AND_ORGANIZATION ( #130, #34 ) ;
#95 = EDGE_LOOP ( 'NONE', ( #115, #200, #21, #96 ) ) ;
#96 = ORIENTED_EDGE ( 'NONE', *, *, #171, .T. ) ;
#97 = CC_DESIGN_PERSON_AND_ORGANIZATION_ASSIGNMENT ( #161, #242, ( #86 ) ) ;
#98 = ORIENTED_EDGE ( 'NONE', *, *, #8, .F. ) ;
#99 = PERSON_AND_ORGANIZATION ( #130, #34 ) ;
#100 = CLOSED_SHELL ( 'NONE', ( #48, #7, #229, #27, #36, #178, #111 ) ) ;
#101 = PERSON_AND_ORGANIZATION ( #130, #34 ) ;
#102 = VERTEX_POINT ( 'NONE', #32 ) ;
#103 = CYLINDRICAL_SURFACE ( 'NONE', #236, 6.000000000000000888 ) ;
#104 = CALENDAR_DATE ( 2023, 12, 2 ) ;
#105 = DIRECTION ( 'NONE',  ( 1.000000000000000000, 0.000000000000000000, 0.000000000000000000 ) ) ;
#106 = DATE_AND_TIME ( #119, #174 ) ;
#107 = VECTOR ( 'NONE', #141, 1000.000000000000000 ) ;
#108 = CARTESIAN_POINT ( 'NONE',  ( 9.000000000000000000, 1.102182119232617714E-15, 7.000000000000000000 ) ) ;
#109 = DIRECTION ( 'NONE',  ( -0.000000000000000000, -0.000000000000000000, -1.000000000000000000 ) ) ;
#110 = LOCAL_TIME ( 11, 48, 55.00000000000000000, #75 ) ;
#111 = ADVANCED_FACE ( 'NONE', ( #18 ), #23, .T. ) ;
#112 = VERTEX_POINT ( 'NONE', #14 ) ;
#113 = VERTEX_POINT ( 'NONE', #231 ) ;
#114 = APPLICATION_PROTOCOL_DEFINITION ( 'international standard', 'config_control_design', 1994, #146 ) ;
#115 = ORIENTED_EDGE ( 'NONE', *, *, #56, .F. ) ;
#116 = CARTESIAN_POINT ( 'NONE',  ( 0.000000000000000000, 0.000000000000000000, 7.000000000000000000 ) ) ;
#117 = AXIS2_PLACEMENT_3D ( 'NONE', #251, #9, #88 ) ;
#118 = ORIENTED_EDGE ( 'NONE', *, *, #254, .F. ) ;
#119 = CALENDAR_DATE ( 2023, 12, 2 ) ;
#120 = APPROVAL_STATUS ( 'not_yet_approved' ) ;
#121 = DIRECTION ( 'NONE',  ( 1.000000000000000000, 0.000000000000000000, 0.000000000000000000 ) ) ;
#122 = CIRCLE ( 'NONE', #15, 9.000000000000000000 ) ;
#123 = CALENDAR_DATE ( 2023, 12, 2 ) ;
#124 = APPROVAL_PERSON_ORGANIZATION ( #51, #42, #69 ) ;
#125 = SHAPE_DEFINITION_REPRESENTATION ( #248, #173 ) ;
#126 = CARTESIAN_POINT ( 'NONE',  ( 9.000000000000000000, 1.102182119232617714E-15, 7.000000000000000000 ) ) ;
#127 = PERSON_AND_ORGANIZATION_ROLE ( 'classification_officer' ) ;
#128 = VECTOR ( 'NONE', #211, 1000.000000000000000 ) ;
#129 = DIRECTION ( 'NONE',  ( 1.000000000000000000, 0.000000000000000000, 0.000000000000000000 ) ) ;
#130 = PERSON ( 'NEURÈENÝ', 'NEURÈENÝ', 'NEURÈENÝ', ('NEURÈENÝ'), ('NEURÈENÝ'), ('NEURÈENÝ') ) ;
#131 = LINE ( 'NONE', #90, #128 ) ;
#132 = EDGE_CURVE ( 'NONE', #38, #113, #54, .T. ) ;
#133 = ORIENTED_EDGE ( 'NONE', *, *, #254, .T. ) ;
#134 = PRODUCT_DEFINITION_FORMATION_WITH_SPECIFIED_SOURCE ( 'LIBOVOLNÝ', '', #252, .NOT_KNOWN. ) ;
#135 = ORIENTED_EDGE ( 'NONE', *, *, #37, .F. ) ;
#136 = EDGE_LOOP ( 'NONE', ( #221, #237 ) ) ;
#137 = DATE_TIME_ROLE ( 'creation_date' ) ;
#138 = CC_DESIGN_PERSON_AND_ORGANIZATION_ASSIGNMENT ( #99, #220, ( #252 ) ) ;
#139 = LINE ( 'NONE', #52, #107 ) ;
#140 = DATE_AND_TIME ( #104, #246 ) ;
#141 = DIRECTION ( 'NONE',  ( -0.000000000000000000, -0.000000000000000000, -1.000000000000000000 ) ) ;
#142 = PERSON_AND_ORGANIZATION ( #130, #34 ) ;
#143 = APPROVAL ( #182, 'NEURÈENÝ' ) ;
#144 = DATE_TIME_ROLE ( 'classification_date' ) ;
#145 = AXIS2_PLACEMENT_3D ( 'NONE', #3, #41, #63 ) ;
#146 = APPLICATION_CONTEXT ( 'configuration controlled 3d designs of mechanical parts and assemblies' ) ;
#147 = APPROVAL_ROLE ( '' ) ;
#148 = EDGE_CURVE ( 'NONE', #113, #38, #164, .T. ) ;
#149 = CIRCLE ( 'NONE', #59, 6.000000000000000888 ) ;
#150 = EDGE_CURVE ( 'NONE', #102, #181, #232, .T. ) ;
#151 =( LENGTH_UNIT ( ) NAMED_UNIT ( * ) SI_UNIT ( .MILLI., .METRE. ) );
#152 = ORIENTED_EDGE ( 'NONE', *, *, #56, .T. ) ;
#153 = VECTOR ( 'NONE', #209, 1000.000000000000000 ) ;
#154 = PRODUCT_RELATED_PRODUCT_CATEGORY ( 'detail', '', ( #252 ) ) ;
#155 = EDGE_LOOP ( 'NONE', ( #43, #152, #20, #135 ) ) ;
#156 = FACE_OUTER_BOUND ( 'NONE', #217, .T. ) ;
#157 = ORIENTED_EDGE ( 'NONE', *, *, #189, .T. ) ;
#158 = DIRECTION ( 'NONE',  ( -0.000000000000000000, -0.000000000000000000, -1.000000000000000000 ) ) ;
#159 = AXIS2_PLACEMENT_3D ( 'NONE', #180, #172, #194 ) ;
#160 = CARTESIAN_POINT ( 'NONE',  ( -6.000000000000000888, 0.000000000000000000, 400.0000000000000000 ) ) ;
#161 = PERSON_AND_ORGANIZATION ( #130, #34 ) ;
#162 = LOCAL_TIME ( 11, 48, 55.00000000000000000, #53 ) ;
#163 = DIRECTION ( 'NONE',  ( 0.000000000000000000, 0.000000000000000000, 1.000000000000000000 ) ) ;
#164 = CIRCLE ( 'NONE', #58, 6.000000000000000888 ) ;
#165 = DIRECTION ( 'NONE',  ( 1.000000000000000000, 0.000000000000000000, 0.000000000000000000 ) ) ;
#166 = FACE_BOUND ( 'NONE', #218, .T. ) ;
#167 = CALENDAR_DATE ( 2023, 12, 2 ) ;
#168 = DIRECTION ( 'NONE',  ( 0.000000000000000000, 0.000000000000000000, 1.000000000000000000 ) ) ;
#169 = CIRCLE ( 'NONE', #46, 6.000000000000000888 ) ;
#170 = CC_DESIGN_APPROVAL ( #207, ( #30 ) ) ;
#171 = EDGE_CURVE ( 'NONE', #219, #235, #149, .T. ) ;
#172 = DIRECTION ( 'NONE',  ( 0.000000000000000000, 0.000000000000000000, 1.000000000000000000 ) ) ;
#173 = ADVANCED_BREP_SHAPE_REPRESENTATION ( '3f1d', ( #184, #145 ), #183 ) ;
#174 = LOCAL_TIME ( 11, 48, 55.00000000000000000, #33 ) ;
#175 = CARTESIAN_POINT ( 'NONE',  ( 0.000000000000000000, 0.000000000000000000, 0.000000000000000000 ) ) ;
#176 = EDGE_LOOP ( 'NONE', ( #64, #185 ) ) ;
#177 = CARTESIAN_POINT ( 'NONE',  ( 6.000000000000000888, 7.347880794884120722E-16, 7.000000000000000000 ) ) ;
#178 = ADVANCED_FACE ( 'NONE', ( #226 ), #57, .T. ) ;
#179 = DIRECTION ( 'NONE',  ( 1.000000000000000000, 0.000000000000000000, 0.000000000000000000 ) ) ;
#180 = CARTESIAN_POINT ( 'NONE',  ( 0.000000000000000000, 0.000000000000000000, 400.0000000000000000 ) ) ;
#181 = VERTEX_POINT ( 'NONE', #108 ) ;
#182 = APPROVAL_STATUS ( 'not_yet_approved' ) ;
#183 =( GEOMETRIC_REPRESENTATION_CONTEXT ( 3 ) GLOBAL_UNCERTAINTY_ASSIGNED_CONTEXT ( ( #1 ) ) GLOBAL_UNIT_ASSIGNED_CONTEXT ( ( #151, #61, #216 ) ) REPRESENTATION_CONTEXT ( 'NONE', 'WORKASPACE' ) );
#184 = MANIFOLD_SOLID_BREP ( 'Pøidat vysunutím3', #100 ) ;
#185 = ORIENTED_EDGE ( 'NONE', *, *, #67, .F. ) ;
#186 = PLANE ( 'NONE',  #204 ) ;
#187 = DIRECTION ( 'NONE',  ( -0.000000000000000000, -0.000000000000000000, -1.000000000000000000 ) ) ;
#188 = AXIS2_PLACEMENT_3D ( 'NONE', #228, #109, #249 ) ;
#189 = EDGE_CURVE ( 'NONE', #102, #197, #131, .T. ) ;
#190 = DIRECTION ( 'NONE',  ( -1.000000000000000000, 0.000000000000000000, 0.000000000000000000 ) ) ;
#191 = APPROVAL_DATE_TIME ( #106, #143 ) ;
#192 = DIRECTION ( 'NONE',  ( 0.000000000000000000, 0.000000000000000000, 1.000000000000000000 ) ) ;
#193 = CARTESIAN_POINT ( 'NONE',  ( 0.000000000000000000, 0.000000000000000000, 400.0000000000000000 ) ) ;
#194 = DIRECTION ( 'NONE',  ( 1.000000000000000000, 0.000000000000000000, -0.000000000000000000 ) ) ;
#195 = PERSON_AND_ORGANIZATION_ROLE ( 'design_supplier' ) ;
#196 = SECURITY_CLASSIFICATION_LEVEL ( 'unclassified' ) ;
#197 = VERTEX_POINT ( 'NONE', #39 ) ;
#198 = ORIENTED_EDGE ( 'NONE', *, *, #80, .T. ) ;
#199 = ORIENTED_EDGE ( 'NONE', *, *, #230, .T. ) ;
#200 = ORIENTED_EDGE ( 'NONE', *, *, #132, .F. ) ;
#201 = DIRECTION ( 'NONE',  ( 0.000000000000000000, 0.000000000000000000, 1.000000000000000000 ) ) ;
#202 = DIRECTION ( 'NONE',  ( 1.000000000000000000, 0.000000000000000000, -0.000000000000000000 ) ) ;
#203 = DIRECTION ( 'NONE',  ( 1.000000000000000000, 0.000000000000000000, -0.000000000000000000 ) ) ;
#204 = AXIS2_PLACEMENT_3D ( 'NONE', #70, #192, #203 ) ;
#205 = COORDINATED_UNIVERSAL_TIME_OFFSET ( 1, 0, .AHEAD. ) ;
#206 = FACE_OUTER_BOUND ( 'NONE', #45, .T. ) ;
#207 = APPROVAL ( #92, 'NEURÈENÝ' ) ;
#208 = CARTESIAN_POINT ( 'NONE',  ( 0.000000000000000000, 0.000000000000000000, 7.000000000000000000 ) ) ;
#209 = DIRECTION ( 'NONE',  ( -0.000000000000000000, -0.000000000000000000, -1.000000000000000000 ) ) ;
#210 = APPROVAL_DATE_TIME ( #10, #207 ) ;
#211 = DIRECTION ( 'NONE',  ( -0.000000000000000000, -0.000000000000000000, -1.000000000000000000 ) ) ;
#212 = AXIS2_PLACEMENT_3D ( 'NONE', #83, #31, #202 ) ;
#213 = CARTESIAN_POINT ( 'NONE',  ( 0.000000000000000000, 0.000000000000000000, 400.0000000000000000 ) ) ;
#214 = APPROVAL_PERSON_ORGANIZATION ( #101, #143, #25 ) ;
#215 = ORIENTED_EDGE ( 'NONE', *, *, #150, .T. ) ;
#216 =( NAMED_UNIT ( * ) SI_UNIT ( $, .STERADIAN. ) SOLID_ANGLE_UNIT ( ) );
#217 = EDGE_LOOP ( 'NONE', ( #81, #19, #157, #199 ) ) ;
#218 = EDGE_LOOP ( 'NONE', ( #40, #98 ) ) ;
#219 = VERTEX_POINT ( 'NONE', #62 ) ;
#220 = PERSON_AND_ORGANIZATION_ROLE ( 'design_owner' ) ;
#221 = ORIENTED_EDGE ( 'NONE', *, *, #132, .T. ) ;
#222 = MECHANICAL_CONTEXT ( 'NONE', #146, 'mechanical' ) ;
#223 = FACE_OUTER_BOUND ( 'NONE', #78, .T. ) ;
#224 = DIRECTION ( 'NONE',  ( 0.000000000000000000, 0.000000000000000000, 1.000000000000000000 ) ) ;
#225 = PERSON_AND_ORGANIZATION_ROLE ( 'creator' ) ;
#226 = FACE_OUTER_BOUND ( 'NONE', #95, .T. ) ;
#227 = PERSON_AND_ORGANIZATION ( #130, #34 ) ;
#228 = CARTESIAN_POINT ( 'NONE',  ( 0.000000000000000000, 0.000000000000000000, 400.0000000000000000 ) ) ;
#229 = ADVANCED_FACE ( 'NONE', ( #156 ), #234, .T. ) ;
#230 = EDGE_CURVE ( 'NONE', #197, #112, #233, .T. ) ;
#231 = CARTESIAN_POINT ( 'NONE',  ( 6.000000000000000888, 7.347880794884120722E-16, 400.0000000000000000 ) ) ;
#232 = CIRCLE ( 'NONE', #117, 9.000000000000000000 ) ;
#233 = CIRCLE ( 'NONE', #250, 9.000000000000000000 ) ;
#234 = CYLINDRICAL_SURFACE ( 'NONE', #12, 9.000000000000000000 ) ;
#235 = VERTEX_POINT ( 'NONE', #177 ) ;
#236 = AXIS2_PLACEMENT_3D ( 'NONE', #68, #5, #239 ) ;
#237 = ORIENTED_EDGE ( 'NONE', *, *, #148, .T. ) ;
#238 = AXIS2_PLACEMENT_3D ( 'NONE', #244, #87, #190 ) ;
#239 = DIRECTION ( 'NONE',  ( -1.000000000000000000, 0.000000000000000000, 0.000000000000000000 ) ) ;
#240 = FACE_OUTER_BOUND ( 'NONE', #176, .T. ) ;
#241 = CARTESIAN_POINT ( 'NONE',  ( 0.000000000000000000, 0.000000000000000000, 0.000000000000000000 ) ) ;
#242 = PERSON_AND_ORGANIZATION_ROLE ( 'creator' ) ;
#243 = AXIS2_PLACEMENT_3D ( 'NONE', #213, #168, #129 ) ;
#244 = CARTESIAN_POINT ( 'NONE',  ( 0.000000000000000000, 0.000000000000000000, 7.000000000000000000 ) ) ;
#245 = APPROVAL_DATE_TIME ( #140, #42 ) ;
#246 = LOCAL_TIME ( 11, 48, 55.00000000000000000, #85 ) ;
#247 = DATE_AND_TIME ( #167, #110 ) ;
#248 = PRODUCT_DEFINITION_SHAPE ( 'NONE', 'NONE',  #86 ) ;
#249 = DIRECTION ( 'NONE',  ( -1.000000000000000000, 0.000000000000000000, 0.000000000000000000 ) ) ;
#250 = AXIS2_PLACEMENT_3D ( 'NONE', #175, #60, #255 ) ;
#251 = CARTESIAN_POINT ( 'NONE',  ( 0.000000000000000000, 0.000000000000000000, 7.000000000000000000 ) ) ;
#252 = PRODUCT ( '3f1d', '3f1d', '', ( #222 ) ) ;
#253 = CC_DESIGN_PERSON_AND_ORGANIZATION_ASSIGNMENT ( #227, #127, ( #30 ) ) ;
#254 = EDGE_CURVE ( 'NONE', #181, #102, #84, .T. ) ;
#255 = DIRECTION ( 'NONE',  ( 1.000000000000000000, 0.000000000000000000, 0.000000000000000000 ) ) ;
ENDSEC;
END-ISO-10303-21;
