ISO-10303-21;
HEADER;
FILE_DESCRIPTION (( 'STEP AP203' ),
    '1' );
FILE_NAME ('0959.STEP',
    '2022-07-07T12:55:53',
    ( '' ),
    ( '' ),
    'SwSTEP 2.0',
    'SolidWorks 2019',
    '' );
FILE_SCHEMA (( 'CONFIG_CONTROL_DESIGN' ));
ENDSEC;

DATA;
#1 = VERTEX_POINT ( 'NONE', #27 ) ;
#2 = DIRECTION ( 'NONE',  ( 0.000000000000000000, 0.000000000000000000, 1.000000000000000000 ) ) ;
#3 = ORIENTED_EDGE ( 'NONE', *, *, #48, .F. ) ;
#4 = ORIENTED_EDGE ( 'NONE', *, *, #65, .F. ) ;
#5 = EDGE_CURVE ( 'NONE', #244, #93, #140, .T. ) ;
#6 = DIRECTION ( 'NONE',  ( 0.000000000000000000, 0.000000000000000000, 1.000000000000000000 ) ) ;
#7 = AXIS2_PLACEMENT_3D ( 'NONE', #275, #126, #190 ) ;
#8 = CARTESIAN_POINT ( 'NONE',  ( -1.250000000000000000, 0.000000000000000000, 252.0000000000000000 ) ) ;
#9 = EDGE_CURVE ( 'NONE', #244, #43, #101, .T. ) ;
#10 = DIRECTION ( 'NONE',  ( -1.000000000000000000, 0.000000000000000000, 0.000000000000000000 ) ) ;
#11 = VECTOR ( 'NONE', #29, 1000.000000000000000 ) ;
#12 = FACE_OUTER_BOUND ( 'NONE', #159, .T. ) ;
#13 = CARTESIAN_POINT ( 'NONE',  ( 0.000000000000000000, 0.000000000000000000, 252.0000000000000000 ) ) ;
#14 = PLANE ( 'NONE',  #172 ) ;
#15 = AXIS2_PLACEMENT_3D ( 'NONE', #232, #136, #283 ) ;
#16 = APPLICATION_PROTOCOL_DEFINITION ( 'international standard', 'config_control_design', 1994, #205 ) ;
#17 = APPROVAL_ROLE ( '' ) ;
#18 = DATE_TIME_ROLE ( 'classification_date' ) ;
#19 = DIRECTION ( 'NONE',  ( 1.224646799147353207E-16, 1.000000000000000000, -0.000000000000000000 ) ) ;
#20 = APPROVAL_ROLE ( '' ) ;
#21 = CARTESIAN_POINT ( 'NONE',  ( -1.450000000000000178, 1.775737858763662409E-16, 2.000000000000003553 ) ) ;
#22 = EDGE_LOOP ( 'NONE', ( #50, #77, #4, #30 ) ) ;
#23 = PERSON_AND_ORGANIZATION_ROLE ( 'creator' ) ;
#24 = VERTEX_POINT ( 'NONE', #187 ) ;
#25 = AXIS2_PLACEMENT_3D ( 'NONE', #271, #144, #117 ) ;
#26 = CC_DESIGN_APPROVAL ( #242, ( #80 ) ) ;
#27 = CARTESIAN_POINT ( 'NONE',  ( -2.500000000000000000, 0.000000000000000000, 0.000000000000000000 ) ) ;
#28 = ORIENTED_EDGE ( 'NONE', *, *, #277, .T. ) ;
#29 = DIRECTION ( 'NONE',  ( -0.000000000000000000, -0.000000000000000000, -1.000000000000000000 ) ) ;
#30 = ORIENTED_EDGE ( 'NONE', *, *, #213, .F. ) ;
#31 = CARTESIAN_POINT ( 'NONE',  ( 0.000000000000000000, 0.000000000000000000, 2.000000000000000000 ) ) ;
#32 = CARTESIAN_POINT ( 'NONE',  ( 0.000000000000000000, 0.000000000000000000, 0.000000000000000000 ) ) ;
#33 = LOCAL_TIME ( 14, 55, 53.00000000000000000, #46 ) ;
#34 = PERSON ( 'NEURÈENÝ', 'NEURÈENÝ', 'NEURÈENÝ', ('NEURÈENÝ'), ('NEURÈENÝ'), ('NEURÈENÝ') ) ;
#35 = DIRECTION ( 'NONE',  ( 1.000000000000000000, 0.000000000000000000, 0.000000000000000000 ) ) ;
#36 = EDGE_CURVE ( 'NONE', #270, #93, #132, .T. ) ;
#37 = DIRECTION ( 'NONE',  ( -0.000000000000000000, -0.000000000000000000, -1.000000000000000000 ) ) ;
#38 = CC_DESIGN_APPROVAL ( #59, ( #233 ) ) ;
#39 = AXIS2_PLACEMENT_3D ( 'NONE', #54, #19, #207 ) ;
#40 = DIRECTION ( 'NONE',  ( 1.000000000000000000, 0.000000000000000000, 0.000000000000000000 ) ) ;
#41 = APPROVAL_PERSON_ORGANIZATION ( #105, #74, #17 ) ;
#42 = APPROVAL_STATUS ( 'not_yet_approved' ) ;
#43 = VERTEX_POINT ( 'NONE', #21 ) ;
#44 = COORDINATED_UNIVERSAL_TIME_OFFSET ( 1, 0, .AHEAD. ) ;
#45 = ORIENTED_EDGE ( 'NONE', *, *, #133, .F. ) ;
#46 = COORDINATED_UNIVERSAL_TIME_OFFSET ( 1, 0, .AHEAD. ) ;
#47 = CARTESIAN_POINT ( 'NONE',  ( 0.000000000000000000, 0.000000000000000000, 2.000000000000000000 ) ) ;
#48 = EDGE_CURVE ( 'NONE', #305, #24, #85, .T. ) ;
#49 = PRODUCT_RELATED_PRODUCT_CATEGORY ( 'detail', '', ( #128 ) ) ;
#50 = ORIENTED_EDGE ( 'NONE', *, *, #5, .F. ) ;
#51 = CIRCLE ( 'NONE', #202, 1.250000000000000000 ) ;
#52 = DIRECTION ( 'NONE',  ( 1.000000000000000000, 0.000000000000000000, -0.000000000000000000 ) ) ;
#53 = EDGE_LOOP ( 'NONE', ( #291, #3, #143, #108 ) ) ;
#54 = CARTESIAN_POINT ( 'NONE',  ( -1.450000000000000178, 1.775737858763662163E-16, 2.200000000000007283 ) ) ;
#55 = LINE ( 'NONE', #8, #217 ) ;
#56 = EDGE_CURVE ( 'NONE', #260, #1, #289, .T. ) ;
#57 = CARTESIAN_POINT ( 'NONE',  ( 2.500000000000000000, 3.061616997868383141E-16, 0.000000000000000000 ) ) ;
#58 = CARTESIAN_POINT ( 'NONE',  ( -1.250000000000000000, 0.000000000000000000, 252.0000000000000000 ) ) ;
#59 = APPROVAL ( #42, 'NEURÈENÝ' ) ;
#60 = DIRECTION ( 'NONE',  ( -0.000000000000000000, -0.000000000000000000, -1.000000000000000000 ) ) ;
#61 = DIRECTION ( 'NONE',  ( -0.000000000000000000, -0.000000000000000000, -1.000000000000000000 ) ) ;
#62 = PRODUCT_DEFINITION_SHAPE ( 'NONE', 'NONE',  #233 ) ;
#63 = LOCAL_TIME ( 14, 55, 53.00000000000000000, #64 ) ;
#64 = COORDINATED_UNIVERSAL_TIME_OFFSET ( 1, 0, .AHEAD. ) ;
#65 = EDGE_CURVE ( 'NONE', #94, #43, #170, .T. ) ;
#66 = CALENDAR_DATE ( 2022, 7, 7 ) ;
#67 = AXIS2_PLACEMENT_3D ( 'NONE', #273, #193, #298 ) ;
#68 = CC_DESIGN_DATE_AND_TIME_ASSIGNMENT ( #130, #197, ( #233 ) ) ;
#69 = PERSON_AND_ORGANIZATION ( #34, #257 ) ;
#70 = PLANE ( 'NONE',  #226 ) ;
#71 = DATE_AND_TIME ( #66, #114 ) ;
#72 = LINE ( 'NONE', #158, #247 ) ;
#73 = CARTESIAN_POINT ( 'NONE',  ( 0.000000000000000000, 0.000000000000000000, 0.000000000000000000 ) ) ;
#74 = APPROVAL ( #221, 'NEURÈENÝ' ) ;
#75 = ORIENTED_EDGE ( 'NONE', *, *, #92, .T. ) ;
#76 = ORIENTED_EDGE ( 'NONE', *, *, #213, .T. ) ;
#77 = ORIENTED_EDGE ( 'NONE', *, *, #9, .T. ) ;
#78 = CARTESIAN_POINT ( 'NONE',  ( 0.000000000000000000, 0.000000000000000000, 0.000000000000000000 ) ) ;
#79 = DIRECTION ( 'NONE',  ( 0.000000000000000000, 0.000000000000000000, 1.000000000000000000 ) ) ;
#80 = SECURITY_CLASSIFICATION ( '', '', #195 ) ;
#81 = DIRECTION ( 'NONE',  ( 0.000000000000000000, 0.000000000000000000, 1.000000000000000000 ) ) ;
#82 = DIRECTION ( 'NONE',  ( 1.000000000000000000, 0.000000000000000000, 0.000000000000000000 ) ) ;
#83 = CALENDAR_DATE ( 2022, 7, 7 ) ;
#84 =( NAMED_UNIT ( * ) SI_UNIT ( $, .STERADIAN. ) SOLID_ANGLE_UNIT ( ) );
#85 = CIRCLE ( 'NONE', #252, 2.500000000000000000 ) ;
#86 = APPROVAL_STATUS ( 'not_yet_approved' ) ;
#87 = EDGE_CURVE ( 'NONE', #270, #183, #51, .T. ) ;
#88 = DIRECTION ( 'NONE',  ( -0.000000000000000000, -0.000000000000000000, -1.000000000000000000 ) ) ;
#89 = ORIENTED_EDGE ( 'NONE', *, *, #9, .F. ) ;
#90 = AXIS2_PLACEMENT_3D ( 'NONE', #122, #212, #99 ) ;
#91 = CARTESIAN_POINT ( 'NONE',  ( 0.000000000000000000, 0.000000000000000000, 2.000000000000000000 ) ) ;
#92 = EDGE_CURVE ( 'NONE', #24, #260, #165, .T. ) ;
#93 = VERTEX_POINT ( 'NONE', #292 ) ;
#94 = VERTEX_POINT ( 'NONE', #110 ) ;
#95 = APPROVAL_PERSON_ORGANIZATION ( #107, #242, #282 ) ;
#96 = EDGE_LOOP ( 'NONE', ( #167, #75, #115, #45 ) ) ;
#97 = CC_DESIGN_PERSON_AND_ORGANIZATION_ASSIGNMENT ( #154, #152, ( #166 ) ) ;
#98 = CYLINDRICAL_SURFACE ( 'NONE', #265, 1.250000000000000000 ) ;
#99 = DIRECTION ( 'NONE',  ( 1.000000000000000000, 0.000000000000000000, 0.000000000000000000 ) ) ;
#100 = CIRCLE ( 'NONE', #150, 2.500000000000000000 ) ;
#101 = CIRCLE ( 'NONE', #39, 0.2000000000000000944 ) ;
#102 = DIRECTION ( 'NONE',  ( 0.000000000000000000, 0.000000000000000000, 1.000000000000000000 ) ) ;
#103 = FACE_OUTER_BOUND ( 'NONE', #267, .T. ) ;
#104 = ADVANCED_FACE ( 'NONE', ( #179, #269 ), #70, .T. ) ;
#105 = PERSON_AND_ORGANIZATION ( #34, #257 ) ;
#106 = CALENDAR_DATE ( 2022, 7, 7 ) ;
#107 = PERSON_AND_ORGANIZATION ( #34, #257 ) ;
#108 = ORIENTED_EDGE ( 'NONE', *, *, #255, .T. ) ;
#109 = APPROVAL_DATE_TIME ( #224, #242 ) ;
#110 = CARTESIAN_POINT ( 'NONE',  ( 1.450000000000000178, 0.000000000000000000, 2.000000000000003553 ) ) ;
#111 = PERSON_AND_ORGANIZATION ( #34, #257 ) ;
#112 = ORIENTED_EDGE ( 'NONE', *, *, #5, .T. ) ;
#113 = TOROIDAL_SURFACE ( 'NONE', #67, 1.450000000000000178, 0.2000000000000000111 ) ;
#114 = LOCAL_TIME ( 14, 55, 53.00000000000000000, #44 ) ;
#115 = ORIENTED_EDGE ( 'NONE', *, *, #56, .T. ) ;
#116 = ADVANCED_FACE ( 'NONE', ( #201 ), #142, .T. ) ;
#117 = DIRECTION ( 'NONE',  ( 1.000000000000000000, 0.000000000000000000, 0.000000000000000000 ) ) ;
#118 = CARTESIAN_POINT ( 'NONE',  ( 0.000000000000000000, 0.000000000000000000, 252.0000000000000000 ) ) ;
#119 = ORIENTED_EDGE ( 'NONE', *, *, #141, .T. ) ;
#120 = DIRECTION ( 'NONE',  ( 0.000000000000000000, 0.000000000000000000, 1.000000000000000000 ) ) ;
#121 = AXIS2_PLACEMENT_3D ( 'NONE', #153, #157, #40 ) ;
#122 = CARTESIAN_POINT ( 'NONE',  ( 0.000000000000000000, 0.000000000000000000, 2.000000000000000000 ) ) ;
#123 = FACE_OUTER_BOUND ( 'NONE', #208, .T. ) ;
#124 = DIRECTION ( 'NONE',  ( 1.000000000000000000, 0.000000000000000000, -0.000000000000000000 ) ) ;
#125 = CIRCLE ( 'NONE', #200, 1.250000000000000000 ) ;
#126 = DIRECTION ( 'NONE',  ( 0.000000000000000000, 0.000000000000000000, 1.000000000000000000 ) ) ;
#127 = DIRECTION ( 'NONE',  ( -1.000000000000000000, 0.000000000000000000, 0.000000000000000000 ) ) ;
#128 = PRODUCT ( '0959', '0959', '', ( #129 ) ) ;
#129 = MECHANICAL_CONTEXT ( 'NONE', #164, 'mechanical' ) ;
#130 = DATE_AND_TIME ( #83, #33 ) ;
#131 = AXIS2_PLACEMENT_3D ( 'NONE', #32, #81, #147 ) ;
#132 = LINE ( 'NONE', #288, #11 ) ;
#133 = EDGE_CURVE ( 'NONE', #305, #1, #72, .T. ) ;
#134 = CALENDAR_DATE ( 2022, 7, 7 ) ;
#135 = ORIENTED_EDGE ( 'NONE', *, *, #65, .T. ) ;
#136 = DIRECTION ( 'NONE',  ( -0.000000000000000000, -0.000000000000000000, -1.000000000000000000 ) ) ;
#137 = APPROVAL_PERSON_ORGANIZATION ( #111, #59, #20 ) ;
#138 = ORIENTED_EDGE ( 'NONE', *, *, #36, .F. ) ;
#139 = ORIENTED_EDGE ( 'NONE', *, *, #241, .F. ) ;
#140 = CIRCLE ( 'NONE', #25, 1.250000000000000000 ) ;
#141 = EDGE_CURVE ( 'NONE', #24, #305, #100, .T. ) ;
#142 = CYLINDRICAL_SURFACE ( 'NONE', #236, 2.500000000000000000 ) ;
#143 = ORIENTED_EDGE ( 'NONE', *, *, #133, .T. ) ;
#144 = DIRECTION ( 'NONE',  ( 0.000000000000000000, 0.000000000000000000, 1.000000000000000000 ) ) ;
#145 = CARTESIAN_POINT ( 'NONE',  ( 0.000000000000000000, 0.000000000000000000, 252.0000000000000000 ) ) ;
#146 = CARTESIAN_POINT ( 'NONE',  ( 1.250000000000000000, 1.530808498934191571E-16, 252.0000000000000000 ) ) ;
#147 = DIRECTION ( 'NONE',  ( 1.000000000000000000, 0.000000000000000000, 0.000000000000000000 ) ) ;
#148 = DIRECTION ( 'NONE',  ( 0.000000000000000000, -1.000000000000000000, 0.000000000000000000 ) ) ;
#149 = ADVANCED_FACE ( 'NONE', ( #169 ), #171, .T. ) ;
#150 = AXIS2_PLACEMENT_3D ( 'NONE', #31, #120, #250 ) ;
#151 = DIRECTION ( 'NONE',  ( 0.000000000000000000, 0.000000000000000000, 1.000000000000000000 ) ) ;
#152 = PERSON_AND_ORGANIZATION_ROLE ( 'creator' ) ;
#153 = CARTESIAN_POINT ( 'NONE',  ( 0.000000000000000000, 0.000000000000000000, 0.000000000000000000 ) ) ;
#154 = PERSON_AND_ORGANIZATION ( #34, #257 ) ;
#155 = AXIS2_PLACEMENT_3D ( 'NONE', #276, #37, #127 ) ;
#156 = ORIENTED_EDGE ( 'NONE', *, *, #231, .F. ) ;
#157 = DIRECTION ( 'NONE',  ( 0.000000000000000000, 0.000000000000000000, 1.000000000000000000 ) ) ;
#158 = CARTESIAN_POINT ( 'NONE',  ( -2.500000000000000000, 0.000000000000000000, 2.000000000000000000 ) ) ;
#159 = EDGE_LOOP ( 'NONE', ( #138, #223, #240, #112 ) ) ;
#160 = CIRCLE ( 'NONE', #161, 1.250000000000000000 ) ;
#161 = AXIS2_PLACEMENT_3D ( 'NONE', #175, #248, #35 ) ;
#162 = EDGE_LOOP ( 'NONE', ( #135, #28 ) ) ;
#163 = ADVANCED_FACE ( 'NONE', ( #297 ), #113, .F. ) ;
#164 = APPLICATION_CONTEXT ( 'configuration controlled 3d designs of mechanical parts and assemblies' ) ;
#165 = LINE ( 'NONE', #246, #278 ) ;
#166 = PRODUCT_DEFINITION_FORMATION_WITH_SPECIFIED_SOURCE ( 'LIBOVOLNÝ', '', #128, .NOT_KNOWN. ) ;
#167 = ORIENTED_EDGE ( 'NONE', *, *, #141, .F. ) ;
#168 = EDGE_CURVE ( 'NONE', #183, #270, #125, .T. ) ;
#169 = FACE_OUTER_BOUND ( 'NONE', #53, .T. ) ;
#170 = CIRCLE ( 'NONE', #15, 1.450000000000000178 ) ;
#171 = CYLINDRICAL_SURFACE ( 'NONE', #155, 2.500000000000000000 ) ;
#172 = AXIS2_PLACEMENT_3D ( 'NONE', #78, #79, #124 ) ;
#173 = DIRECTION ( 'NONE',  ( -1.000000000000000000, 0.000000000000000000, 0.000000000000000000 ) ) ;
#174 = FACE_OUTER_BOUND ( 'NONE', #22, .T. ) ;
#175 = CARTESIAN_POINT ( 'NONE',  ( 0.000000000000000000, 0.000000000000000000, 2.200000000000007283 ) ) ;
#176 = APPLICATION_PROTOCOL_DEFINITION ( 'international standard', 'config_control_design', 1994, #164 ) ;
#177 = PERSON_AND_ORGANIZATION ( #34, #257 ) ;
#178 = COORDINATED_UNIVERSAL_TIME_OFFSET ( 1, 0, .AHEAD. ) ;
#179 = FACE_BOUND ( 'NONE', #162, .T. ) ;
#180 = APPROVAL_DATE_TIME ( #262, #59 ) ;
#181 = DIRECTION ( 'NONE',  ( -1.000000000000000000, 0.000000000000000000, 0.000000000000000000 ) ) ;
#182 = CC_DESIGN_PERSON_AND_ORGANIZATION_ASSIGNMENT ( #177, #228, ( #80 ) ) ;
#183 = VERTEX_POINT ( 'NONE', #58 ) ;
#184 = DIRECTION ( 'NONE',  ( 0.000000000000000000, 0.000000000000000000, 1.000000000000000000 ) ) ;
#185 = EDGE_LOOP ( 'NONE', ( #89, #139, #76, #203 ) ) ;
#186 = ADVANCED_FACE ( 'NONE', ( #12 ), #98, .T. ) ;
#187 = CARTESIAN_POINT ( 'NONE',  ( 2.500000000000000000, 3.061616997868383141E-16, 2.000000000000000000 ) ) ;
#188 = UNCERTAINTY_MEASURE_WITH_UNIT (LENGTH_MEASURE( 1.000000000000000082E-05 ), #220, 'distance_accuracy_value', 'NONE');
#189 = CARTESIAN_POINT ( 'NONE',  ( -1.250000000000000000, 0.000000000000000000, 2.200000000000007283 ) ) ;
#190 = DIRECTION ( 'NONE',  ( 1.000000000000000000, 0.000000000000000000, 0.000000000000000000 ) ) ;
#191 = CC_DESIGN_SECURITY_CLASSIFICATION ( #80, ( #166 ) ) ;
#192 = CARTESIAN_POINT ( 'NONE',  ( 0.000000000000000000, 0.000000000000000000, 252.0000000000000000 ) ) ;
#193 = DIRECTION ( 'NONE',  ( 0.000000000000000000, 0.000000000000000000, 1.000000000000000000 ) ) ;
#194 = PLANE ( 'NONE',  #307 ) ;
#195 = SECURITY_CLASSIFICATION_LEVEL ( 'unclassified' ) ;
#196 = DATE_AND_TIME ( #106, #63 ) ;
#197 = DATE_TIME_ROLE ( 'creation_date' ) ;
#198 = DIRECTION ( 'NONE',  ( 1.000000000000000000, 0.000000000000000000, 0.000000000000000000 ) ) ;
#199 = SHAPE_DEFINITION_REPRESENTATION ( #62, #287 ) ;
#200 = AXIS2_PLACEMENT_3D ( 'NONE', #145, #102, #82 ) ;
#201 = FACE_OUTER_BOUND ( 'NONE', #96, .T. ) ;
#202 = AXIS2_PLACEMENT_3D ( 'NONE', #118, #6, #198 ) ;
#203 = ORIENTED_EDGE ( 'NONE', *, *, #277, .F. ) ;
#204 = TOROIDAL_SURFACE ( 'NONE', #7, 1.450000000000000178, 0.2000000000000000111 ) ;
#205 = APPLICATION_CONTEXT ( 'configuration controlled 3d designs of mechanical parts and assemblies' ) ;
#206 = EDGE_LOOP ( 'NONE', ( #304, #119 ) ) ;
#207 = DIRECTION ( 'NONE',  ( -1.000000000000000000, 1.224646799147353207E-16, 0.000000000000000000 ) ) ;
#208 = EDGE_LOOP ( 'NONE', ( #286, #234, #227, #156 ) ) ;
#209 = DIRECTION ( 'NONE',  ( -0.000000000000000000, -0.000000000000000000, -1.000000000000000000 ) ) ;
#210 = ORIENTED_EDGE ( 'NONE', *, *, #56, .F. ) ;
#211 = AXIS2_PLACEMENT_3D ( 'NONE', #13, #61, #10 ) ;
#212 = DIRECTION ( 'NONE',  ( -0.000000000000000000, -0.000000000000000000, -1.000000000000000000 ) ) ;
#213 = EDGE_CURVE ( 'NONE', #93, #94, #229, .T. ) ;
#214 = FACE_OUTER_BOUND ( 'NONE', #259, .T. ) ;
#215 = CARTESIAN_POINT ( 'NONE',  ( -2.500000000000000000, 0.000000000000000000, 2.000000000000000000 ) ) ;
#216 = DESIGN_CONTEXT ( 'detailed design', #205, 'design' ) ;
#217 = VECTOR ( 'NONE', #253, 1000.000000000000000 ) ;
#218 = CYLINDRICAL_SURFACE ( 'NONE', #211, 1.250000000000000000 ) ;
#219 = CC_DESIGN_DATE_AND_TIME_ASSIGNMENT ( #71, #18, ( #80 ) ) ;
#220 =( LENGTH_UNIT ( ) NAMED_UNIT ( * ) SI_UNIT ( .MILLI., .METRE. ) );
#221 = APPROVAL_STATUS ( 'not_yet_approved' ) ;
#222 = PERSON_AND_ORGANIZATION_ROLE ( 'design_supplier' ) ;
#223 = ORIENTED_EDGE ( 'NONE', *, *, #168, .F. ) ;
#224 = DATE_AND_TIME ( #134, #295 ) ;
#225 = ORIENTED_EDGE ( 'NONE', *, *, #255, .F. ) ;
#226 = AXIS2_PLACEMENT_3D ( 'NONE', #91, #184, #52 ) ;
#227 = ORIENTED_EDGE ( 'NONE', *, *, #241, .T. ) ;
#228 = PERSON_AND_ORGANIZATION_ROLE ( 'classification_officer' ) ;
#229 = CIRCLE ( 'NONE', #254, 0.2000000000000000944 ) ;
#230 = CIRCLE ( 'NONE', #131, 2.500000000000000000 ) ;
#231 = EDGE_CURVE ( 'NONE', #183, #244, #55, .T. ) ;
#232 = CARTESIAN_POINT ( 'NONE',  ( 0.000000000000000000, 0.000000000000000000, 2.000000000000000000 ) ) ;
#233 = PRODUCT_DEFINITION ( 'NEZNÁMÝ', '', #166, #216 ) ;
#234 = ORIENTED_EDGE ( 'NONE', *, *, #36, .T. ) ;
#235 = CLOSED_SHELL ( 'NONE', ( #266, #272, #116, #149, #104, #261, #186, #293, #163 ) ) ;
#236 = AXIS2_PLACEMENT_3D ( 'NONE', #243, #264, #181 ) ;
#237 = ORIENTED_EDGE ( 'NONE', *, *, #87, .T. ) ;
#238 = LOCAL_TIME ( 14, 55, 53.00000000000000000, #284 ) ;
#239 = MANIFOLD_SOLID_BREP ( 'Zaoblit1', #235 ) ;
#240 = ORIENTED_EDGE ( 'NONE', *, *, #231, .T. ) ;
#241 = EDGE_CURVE ( 'NONE', #93, #244, #160, .T. ) ;
#242 = APPROVAL ( #86, 'NEURÈENÝ' ) ;
#243 = CARTESIAN_POINT ( 'NONE',  ( 0.000000000000000000, 0.000000000000000000, 2.000000000000000000 ) ) ;
#244 = VERTEX_POINT ( 'NONE', #189 ) ;
#245 = CC_DESIGN_PERSON_AND_ORGANIZATION_ASSIGNMENT ( #256, #280, ( #128 ) ) ;
#246 = CARTESIAN_POINT ( 'NONE',  ( 2.500000000000000000, 3.061616997868383141E-16, 2.000000000000000000 ) ) ;
#247 = VECTOR ( 'NONE', #209, 1000.000000000000000 ) ;
#248 = DIRECTION ( 'NONE',  ( 0.000000000000000000, 0.000000000000000000, 1.000000000000000000 ) ) ;
#249 = CC_DESIGN_APPROVAL ( #74, ( #166 ) ) ;
#250 = DIRECTION ( 'NONE',  ( 1.000000000000000000, 0.000000000000000000, 0.000000000000000000 ) ) ;
#251 = DIRECTION ( 'NONE',  ( 1.000000000000000000, 0.000000000000000000, -0.000000000000000000 ) ) ;
#252 = AXIS2_PLACEMENT_3D ( 'NONE', #47, #2, #301 ) ;
#253 = DIRECTION ( 'NONE',  ( -0.000000000000000000, -0.000000000000000000, -1.000000000000000000 ) ) ;
#254 = AXIS2_PLACEMENT_3D ( 'NONE', #296, #148, #279 ) ;
#255 = EDGE_CURVE ( 'NONE', #1, #260, #230, .T. ) ;
#256 = PERSON_AND_ORGANIZATION ( #34, #257 ) ;
#257 = ORGANIZATION ( 'NEURÈENÝ', 'NEURÈENÝ', '' ) ;
#258 = CALENDAR_DATE ( 2022, 7, 7 ) ;
#259 = EDGE_LOOP ( 'NONE', ( #225, #210 ) ) ;
#260 = VERTEX_POINT ( 'NONE', #57 ) ;
#261 = ADVANCED_FACE ( 'NONE', ( #214 ), #14, .F. ) ;
#262 = DATE_AND_TIME ( #258, #238 ) ;
#263 = CC_DESIGN_PERSON_AND_ORGANIZATION_ASSIGNMENT ( #299, #222, ( #166 ) ) ;
#264 = DIRECTION ( 'NONE',  ( -0.000000000000000000, -0.000000000000000000, -1.000000000000000000 ) ) ;
#265 = AXIS2_PLACEMENT_3D ( 'NONE', #192, #60, #173 ) ;
#266 = ADVANCED_FACE ( 'NONE', ( #174 ), #204, .F. ) ;
#267 = EDGE_LOOP ( 'NONE', ( #290, #237 ) ) ;
#268 = AXIS2_PLACEMENT_3D ( 'NONE', #73, #303, #285 ) ;
#269 = FACE_OUTER_BOUND ( 'NONE', #206, .T. ) ;
#270 = VERTEX_POINT ( 'NONE', #146 ) ;
#271 = CARTESIAN_POINT ( 'NONE',  ( 0.000000000000000000, 0.000000000000000000, 2.200000000000007283 ) ) ;
#272 = ADVANCED_FACE ( 'NONE', ( #123 ), #218, .T. ) ;
#273 = CARTESIAN_POINT ( 'NONE',  ( 0.000000000000000000, 0.000000000000000000, 2.200000000000007283 ) ) ;
#274 = CIRCLE ( 'NONE', #90, 1.450000000000000178 ) ;
#275 = CARTESIAN_POINT ( 'NONE',  ( 0.000000000000000000, 0.000000000000000000, 2.200000000000007283 ) ) ;
#276 = CARTESIAN_POINT ( 'NONE',  ( 0.000000000000000000, 0.000000000000000000, 2.000000000000000000 ) ) ;
#277 = EDGE_CURVE ( 'NONE', #43, #94, #274, .T. ) ;
#278 = VECTOR ( 'NONE', #88, 1000.000000000000000 ) ;
#279 = DIRECTION ( 'NONE',  ( 0.000000000000000000, 0.000000000000000000, -1.000000000000000000 ) ) ;
#280 = PERSON_AND_ORGANIZATION_ROLE ( 'design_owner' ) ;
#281 =( NAMED_UNIT ( * ) PLANE_ANGLE_UNIT ( ) SI_UNIT ( $, .RADIAN. ) );
#282 = APPROVAL_ROLE ( '' ) ;
#283 = DIRECTION ( 'NONE',  ( 1.000000000000000000, 0.000000000000000000, 0.000000000000000000 ) ) ;
#284 = COORDINATED_UNIVERSAL_TIME_OFFSET ( 1, 0, .AHEAD. ) ;
#285 = DIRECTION ( 'NONE',  ( 1.000000000000000000, 0.000000000000000000, 0.000000000000000000 ) ) ;
#286 = ORIENTED_EDGE ( 'NONE', *, *, #87, .F. ) ;
#287 = ADVANCED_BREP_SHAPE_REPRESENTATION ( '0959', ( #239, #121 ), #302 ) ;
#288 = CARTESIAN_POINT ( 'NONE',  ( 1.250000000000000000, 1.530808498934191571E-16, 252.0000000000000000 ) ) ;
#289 = CIRCLE ( 'NONE', #268, 2.500000000000000000 ) ;
#290 = ORIENTED_EDGE ( 'NONE', *, *, #168, .T. ) ;
#291 = ORIENTED_EDGE ( 'NONE', *, *, #92, .F. ) ;
#292 = CARTESIAN_POINT ( 'NONE',  ( 1.250000000000000000, 1.530808498934191571E-16, 2.200000000000007283 ) ) ;
#293 = ADVANCED_FACE ( 'NONE', ( #103 ), #194, .T. ) ;
#294 = CARTESIAN_POINT ( 'NONE',  ( 0.000000000000000000, 0.000000000000000000, 252.0000000000000000 ) ) ;
#295 = LOCAL_TIME ( 14, 55, 53.00000000000000000, #178 ) ;
#296 = CARTESIAN_POINT ( 'NONE',  ( 1.450000000000000178, 0.000000000000000000, 2.200000000000007283 ) ) ;
#297 = FACE_OUTER_BOUND ( 'NONE', #185, .T. ) ;
#298 = DIRECTION ( 'NONE',  ( 1.000000000000000000, 0.000000000000000000, 0.000000000000000000 ) ) ;
#299 = PERSON_AND_ORGANIZATION ( #34, #257 ) ;
#300 = APPROVAL_DATE_TIME ( #196, #74 ) ;
#301 = DIRECTION ( 'NONE',  ( 1.000000000000000000, 0.000000000000000000, 0.000000000000000000 ) ) ;
#302 =( GEOMETRIC_REPRESENTATION_CONTEXT ( 3 ) GLOBAL_UNCERTAINTY_ASSIGNED_CONTEXT ( ( #188 ) ) GLOBAL_UNIT_ASSIGNED_CONTEXT ( ( #220, #281, #84 ) ) REPRESENTATION_CONTEXT ( 'NONE', 'WORKASPACE' ) );
#303 = DIRECTION ( 'NONE',  ( 0.000000000000000000, 0.000000000000000000, 1.000000000000000000 ) ) ;
#304 = ORIENTED_EDGE ( 'NONE', *, *, #48, .T. ) ;
#305 = VERTEX_POINT ( 'NONE', #215 ) ;
#306 = CC_DESIGN_PERSON_AND_ORGANIZATION_ASSIGNMENT ( #69, #23, ( #233 ) ) ;
#307 = AXIS2_PLACEMENT_3D ( 'NONE', #294, #151, #251 ) ;
ENDSEC;
END-ISO-10303-21;
