ISO-10303-21;
HEADER;
FILE_DESCRIPTION (( 'STEP AP203' ),
    '1' );
FILE_NAME ('a716.STEP',
    '2022-06-30T20:26:09',
    ( '' ),
    ( '' ),
    'SwSTEP 2.0',
    'SolidWorks 2019',
    '' );
FILE_SCHEMA (( 'CONFIG_CONTROL_DESIGN' ));
ENDSEC;

DATA;
#1 = EDGE_LOOP ( 'NONE', ( #216, #220, #178, #160 ) ) ;
#2 = CARTESIAN_POINT ( 'NONE',  ( 2.000000000000000000, 2.449293598294706414E-16, 2.000000000000000000 ) ) ;
#3 = LOCAL_TIME ( 22, 26, 9.000000000000000000, #150 ) ;
#4 = CARTESIAN_POINT ( 'NONE',  ( 0.000000000000000000, 0.000000000000000000, 2.000000000000000000 ) ) ;
#5 = ORIENTED_EDGE ( 'NONE', *, *, #82, .T. ) ;
#6 = EDGE_CURVE ( 'NONE', #143, #162, #134, .T. ) ;
#7 = CALENDAR_DATE ( 2022, 30, 6 ) ;
#8 = DATE_AND_TIME ( #7, #3 ) ;
#9 = DIRECTION ( 'NONE',  ( -0.000000000000000000, -0.000000000000000000, -1.000000000000000000 ) ) ;
#10 = DATE_TIME_ROLE ( 'classification_date' ) ;
#11 = DIRECTION ( 'NONE',  ( 1.000000000000000000, 0.000000000000000000, -0.000000000000000000 ) ) ;
#12 = DIRECTION ( 'NONE',  ( 0.000000000000000000, 0.000000000000000000, 1.000000000000000000 ) ) ;
#13 =( LENGTH_UNIT ( ) NAMED_UNIT ( * ) SI_UNIT ( .MILLI., .METRE. ) );
#14 = CC_DESIGN_SECURITY_CLASSIFICATION ( #214, ( #37 ) ) ;
#15 = PERSON_AND_ORGANIZATION_ROLE ( 'design_supplier' ) ;
#16 = DIRECTION ( 'NONE',  ( 1.000000000000000000, 0.000000000000000000, 0.000000000000000000 ) ) ;
#17 = EDGE_LOOP ( 'NONE', ( #144, #117 ) ) ;
#18 = AXIS2_PLACEMENT_3D ( 'NONE', #130, #167, #203 ) ;
#19 = CIRCLE ( 'NONE', #98, 2.000000000000000000 ) ;
#20 = PLANE ( 'NONE',  #18 ) ;
#21 = DIRECTION ( 'NONE',  ( 1.000000000000000000, 0.000000000000000000, 0.000000000000000000 ) ) ;
#22 = CIRCLE ( 'NONE', #255, 2.000000000000000000 ) ;
#23 = DIRECTION ( 'NONE',  ( -1.000000000000000000, 0.000000000000000000, 0.000000000000000000 ) ) ;
#24 = EDGE_CURVE ( 'NONE', #212, #69, #85, .T. ) ;
#25 = ORIENTED_EDGE ( 'NONE', *, *, #244, .F. ) ;
#26 = DATE_AND_TIME ( #60, #43 ) ;
#27 = LINE ( 'NONE', #111, #180 ) ;
#28 = AXIS2_PLACEMENT_3D ( 'NONE', #246, #229, #16 ) ;
#29 = APPROVAL_STATUS ( 'not_yet_approved' ) ;
#30 = CARTESIAN_POINT ( 'NONE',  ( 0.000000000000000000, 0.000000000000000000, 0.000000000000000000 ) ) ;
#31 = PERSON_AND_ORGANIZATION ( #161, #148 ) ;
#32 = CARTESIAN_POINT ( 'NONE',  ( 0.000000000000000000, 0.000000000000000000, 102.0000000000000142 ) ) ;
#33 = PERSON_AND_ORGANIZATION ( #161, #148 ) ;
#34 = CYLINDRICAL_SURFACE ( 'NONE', #126, 2.000000000000000000 ) ;
#35 = ORIENTED_EDGE ( 'NONE', *, *, #237, .T. ) ;
#36 = CIRCLE ( 'NONE', #210, 1.000000000000000000 ) ;
#37 = PRODUCT_DEFINITION_FORMATION_WITH_SPECIFIED_SOURCE ( 'LIBOVOLNÝ', '', #38, .NOT_KNOWN. ) ;
#38 = PRODUCT ( 'a716', 'a716', '', ( #171 ) ) ;
#39 = LINE ( 'NONE', #235, #217 ) ;
#40 = ADVANCED_FACE ( 'NONE', ( #218, #54 ), #20, .T. ) ;
#41 = VERTEX_POINT ( 'NONE', #204 ) ;
#42 = AXIS2_PLACEMENT_3D ( 'NONE', #4, #219, #199 ) ;
#43 = LOCAL_TIME ( 22, 26, 9.000000000000000000, #243 ) ;
#44 = CC_DESIGN_DATE_AND_TIME_ASSIGNMENT ( #186, #10, ( #214 ) ) ;
#45 = APPLICATION_CONTEXT ( 'configuration controlled 3d designs of mechanical parts and assemblies' ) ;
#46 = PRODUCT_DEFINITION ( 'NEZNÁMÝ', '', #37, #225 ) ;
#47 = AXIS2_PLACEMENT_3D ( 'NONE', #87, #238, #67 ) ;
#48 = EDGE_LOOP ( 'NONE', ( #123, #181 ) ) ;
#49 = CARTESIAN_POINT ( 'NONE',  ( -2.000000000000000000, 0.000000000000000000, 2.000000000000000000 ) ) ;
#50 = EDGE_LOOP ( 'NONE', ( #88, #194, #211, #165 ) ) ;
#51 = CLOSED_SHELL ( 'NONE', ( #198, #132, #63, #40, #215, #175, #125 ) ) ;
#52 = EDGE_CURVE ( 'NONE', #200, #69, #242, .T. ) ;
#53 = CC_DESIGN_APPROVAL ( #221, ( #37 ) ) ;
#54 = FACE_OUTER_BOUND ( 'NONE', #122, .T. ) ;
#55 = APPLICATION_PROTOCOL_DEFINITION ( 'international standard', 'config_control_design', 1994, #142 ) ;
#56 = PERSON_AND_ORGANIZATION_ROLE ( 'creator' ) ;
#57 = DIRECTION ( 'NONE',  ( -1.000000000000000000, 0.000000000000000000, 0.000000000000000000 ) ) ;
#58 = AXIS2_PLACEMENT_3D ( 'NONE', #97, #12, #109 ) ;
#59 = APPROVAL_STATUS ( 'not_yet_approved' ) ;
#60 = CALENDAR_DATE ( 2022, 30, 6 ) ;
#61 = DIRECTION ( 'NONE',  ( -1.000000000000000000, 0.000000000000000000, 0.000000000000000000 ) ) ;
#62 = FACE_OUTER_BOUND ( 'NONE', #146, .T. ) ;
#63 = ADVANCED_FACE ( 'NONE', ( #89 ), #182, .T. ) ;
#64 = AXIS2_PLACEMENT_3D ( 'NONE', #108, #131, #147 ) ;
#65 = LOCAL_TIME ( 22, 26, 9.000000000000000000, #174 ) ;
#66 = CC_DESIGN_PERSON_AND_ORGANIZATION_ASSIGNMENT ( #188, #56, ( #37 ) ) ;
#67 = DIRECTION ( 'NONE',  ( 1.000000000000000000, 0.000000000000000000, 0.000000000000000000 ) ) ;
#68 = ORIENTED_EDGE ( 'NONE', *, *, #192, .F. ) ;
#69 = VERTEX_POINT ( 'NONE', #224 ) ;
#70 = CARTESIAN_POINT ( 'NONE',  ( 0.000000000000000000, 0.000000000000000000, 2.000000000000000000 ) ) ;
#71 = UNCERTAINTY_MEASURE_WITH_UNIT (LENGTH_MEASURE( 1.000000000000000082E-05 ), #13, 'distance_accuracy_value', 'NONE');
#72 = COORDINATED_UNIVERSAL_TIME_OFFSET ( 1, 0, .AHEAD. ) ;
#73 = APPROVAL_STATUS ( 'not_yet_approved' ) ;
#74 = PLANE ( 'NONE',  #173 ) ;
#75 = PERSON_AND_ORGANIZATION ( #161, #148 ) ;
#76 = MANIFOLD_SOLID_BREP ( 'Pøidat vysunutím3', #51 ) ;
#77 = DIRECTION ( 'NONE',  ( 1.000000000000000000, 0.000000000000000000, 0.000000000000000000 ) ) ;
#78 = VECTOR ( 'NONE', #105, 1000.000000000000000 ) ;
#79 = LOCAL_TIME ( 22, 26, 9.000000000000000000, #228 ) ;
#80 = DATE_TIME_ROLE ( 'creation_date' ) ;
#81 = CARTESIAN_POINT ( 'NONE',  ( 0.000000000000000000, 0.000000000000000000, 102.0000000000000142 ) ) ;
#82 = EDGE_CURVE ( 'NONE', #162, #143, #93, .T. ) ;
#83 = CARTESIAN_POINT ( 'NONE',  ( 0.000000000000000000, 0.000000000000000000, 2.000000000000000000 ) ) ;
#84 = VERTEX_POINT ( 'NONE', #2 ) ;
#85 = CIRCLE ( 'NONE', #64, 2.000000000000000000 ) ;
#86 = EDGE_CURVE ( 'NONE', #69, #212, #118, .T. ) ;
#87 = CARTESIAN_POINT ( 'NONE',  ( 0.000000000000000000, 0.000000000000000000, 2.000000000000000000 ) ) ;
#88 = ORIENTED_EDGE ( 'NONE', *, *, #104, .F. ) ;
#89 = FACE_OUTER_BOUND ( 'NONE', #1, .T. ) ;
#90 = ORIENTED_EDGE ( 'NONE', *, *, #254, .T. ) ;
#91 = SHAPE_DEFINITION_REPRESENTATION ( #120, #202 ) ;
#92 = CC_DESIGN_PERSON_AND_ORGANIZATION_ASSIGNMENT ( #205, #231, ( #214 ) ) ;
#93 = CIRCLE ( 'NONE', #47, 1.000000000000000000 ) ;
#94 = CARTESIAN_POINT ( 'NONE',  ( 1.000000000000000000, 1.224646799147353207E-16, 102.0000000000000142 ) ) ;
#95 =( NAMED_UNIT ( * ) SI_UNIT ( $, .STERADIAN. ) SOLID_ANGLE_UNIT ( ) );
#96 = CARTESIAN_POINT ( 'NONE',  ( 0.000000000000000000, 0.000000000000000000, 102.0000000000000142 ) ) ;
#97 = CARTESIAN_POINT ( 'NONE',  ( 0.000000000000000000, 0.000000000000000000, 0.000000000000000000 ) ) ;
#98 = AXIS2_PLACEMENT_3D ( 'NONE', #157, #101, #77 ) ;
#99 = CALENDAR_DATE ( 2022, 30, 6 ) ;
#100 = PRODUCT_RELATED_PRODUCT_CATEGORY ( 'detail', '', ( #38 ) ) ;
#101 = DIRECTION ( 'NONE',  ( 0.000000000000000000, 0.000000000000000000, 1.000000000000000000 ) ) ;
#102 = ORIENTED_EDGE ( 'NONE', *, *, #6, .F. ) ;
#103 = ORIENTED_EDGE ( 'NONE', *, *, #6, .T. ) ;
#104 = EDGE_CURVE ( 'NONE', #84, #200, #22, .T. ) ;
#105 = DIRECTION ( 'NONE',  ( -0.000000000000000000, -0.000000000000000000, -1.000000000000000000 ) ) ;
#106 = DIRECTION ( 'NONE',  ( 1.000000000000000000, 0.000000000000000000, 0.000000000000000000 ) ) ;
#107 = LOCAL_TIME ( 22, 26, 9.000000000000000000, #72 ) ;
#108 = CARTESIAN_POINT ( 'NONE',  ( 0.000000000000000000, 0.000000000000000000, 0.000000000000000000 ) ) ;
#109 = DIRECTION ( 'NONE',  ( 1.000000000000000000, 0.000000000000000000, 0.000000000000000000 ) ) ;
#110 = AXIS2_PLACEMENT_3D ( 'NONE', #96, #187, #155 ) ;
#111 = CARTESIAN_POINT ( 'NONE',  ( 1.000000000000000000, 1.224646799147353207E-16, 102.0000000000000142 ) ) ;
#112 = SECURITY_CLASSIFICATION_LEVEL ( 'unclassified' ) ;
#113 = DIRECTION ( 'NONE',  ( 0.000000000000000000, 0.000000000000000000, 1.000000000000000000 ) ) ;
#114 = CYLINDRICAL_SURFACE ( 'NONE', #135, 1.000000000000000000 ) ;
#115 = DATE_AND_TIME ( #138, #79 ) ;
#116 = DIRECTION ( 'NONE',  ( -0.000000000000000000, -0.000000000000000000, -1.000000000000000000 ) ) ;
#117 = ORIENTED_EDGE ( 'NONE', *, *, #24, .F. ) ;
#118 = CIRCLE ( 'NONE', #222, 2.000000000000000000 ) ;
#119 = APPROVAL_PERSON_ORGANIZATION ( #31, #221, #168 ) ;
#120 = PRODUCT_DEFINITION_SHAPE ( 'NONE', 'NONE',  #46 ) ;
#121 = DIRECTION ( 'NONE',  ( 0.000000000000000000, 0.000000000000000000, 1.000000000000000000 ) ) ;
#122 = EDGE_LOOP ( 'NONE', ( #35, #252 ) ) ;
#123 = ORIENTED_EDGE ( 'NONE', *, *, #192, .T. ) ;
#124 = APPROVAL_PERSON_ORGANIZATION ( #33, #253, #233 ) ;
#125 = ADVANCED_FACE ( 'NONE', ( #166 ), #74, .T. ) ;
#126 = AXIS2_PLACEMENT_3D ( 'NONE', #83, #247, #61 ) ;
#127 = ORIENTED_EDGE ( 'NONE', *, *, #254, .F. ) ;
#128 = EDGE_LOOP ( 'NONE', ( #164, #156, #103, #127 ) ) ;
#129 = DIRECTION ( 'NONE',  ( 0.000000000000000000, 0.000000000000000000, 1.000000000000000000 ) ) ;
#130 = CARTESIAN_POINT ( 'NONE',  ( 0.000000000000000000, 0.000000000000000000, 2.000000000000000000 ) ) ;
#131 = DIRECTION ( 'NONE',  ( 0.000000000000000000, 0.000000000000000000, 1.000000000000000000 ) ) ;
#132 = ADVANCED_FACE ( 'NONE', ( #250 ), #34, .T. ) ;
#133 = PERSON_AND_ORGANIZATION ( #161, #148 ) ;
#134 = CIRCLE ( 'NONE', #42, 1.000000000000000000 ) ;
#135 = AXIS2_PLACEMENT_3D ( 'NONE', #184, #116, #57 ) ;
#136 = CARTESIAN_POINT ( 'NONE',  ( 2.000000000000000000, 2.449293598294706414E-16, 0.000000000000000000 ) ) ;
#137 = APPROVAL_ROLE ( '' ) ;
#138 = CALENDAR_DATE ( 2022, 30, 6 ) ;
#139 = DIRECTION ( 'NONE',  ( 1.000000000000000000, 0.000000000000000000, 0.000000000000000000 ) ) ;
#140 = EDGE_LOOP ( 'NONE', ( #195, #102 ) ) ;
#141 = CYLINDRICAL_SURFACE ( 'NONE', #110, 1.000000000000000000 ) ;
#142 = APPLICATION_CONTEXT ( 'configuration controlled 3d designs of mechanical parts and assemblies' ) ;
#143 = VERTEX_POINT ( 'NONE', #170 ) ;
#144 = ORIENTED_EDGE ( 'NONE', *, *, #86, .F. ) ;
#145 = CARTESIAN_POINT ( 'NONE',  ( 0.000000000000000000, 0.000000000000000000, 2.000000000000000000 ) ) ;
#146 = EDGE_LOOP ( 'NONE', ( #25, #68, #90, #5 ) ) ;
#147 = DIRECTION ( 'NONE',  ( 1.000000000000000000, 0.000000000000000000, 0.000000000000000000 ) ) ;
#148 = ORGANIZATION ( 'NEURÈENÝ', 'NEURÈENÝ', '' ) ;
#149 = EDGE_CURVE ( 'NONE', #84, #212, #39, .T. ) ;
#150 = COORDINATED_UNIVERSAL_TIME_OFFSET ( 1, 0, .AHEAD. ) ;
#151 = CARTESIAN_POINT ( 'NONE',  ( -1.000000000000000000, 0.000000000000000000, 2.000000000000000000 ) ) ;
#152 = PERSON_AND_ORGANIZATION ( #161, #148 ) ;
#153 = LINE ( 'NONE', #232, #223 ) ;
#154 = PERSON_AND_ORGANIZATION_ROLE ( 'creator' ) ;
#155 = DIRECTION ( 'NONE',  ( -1.000000000000000000, 0.000000000000000000, 0.000000000000000000 ) ) ;
#156 = ORIENTED_EDGE ( 'NONE', *, *, #244, .T. ) ;
#157 = CARTESIAN_POINT ( 'NONE',  ( 0.000000000000000000, 0.000000000000000000, 2.000000000000000000 ) ) ;
#158 = CIRCLE ( 'NONE', #28, 1.000000000000000000 ) ;
#159 = EDGE_CURVE ( 'NONE', #196, #41, #36, .T. ) ;
#160 = ORIENTED_EDGE ( 'NONE', *, *, #86, .T. ) ;
#161 = PERSON ( 'NEURÈENÝ', 'NEURÈENÝ', 'NEURÈENÝ', ('NEURÈENÝ'), ('NEURÈENÝ'), ('NEURÈENÝ') ) ;
#162 = VERTEX_POINT ( 'NONE', #151 ) ;
#163 = CC_DESIGN_PERSON_AND_ORGANIZATION_ASSIGNMENT ( #249, #154, ( #46 ) ) ;
#164 = ORIENTED_EDGE ( 'NONE', *, *, #159, .F. ) ;
#165 = ORIENTED_EDGE ( 'NONE', *, *, #52, .F. ) ;
#166 = FACE_OUTER_BOUND ( 'NONE', #48, .T. ) ;
#167 = DIRECTION ( 'NONE',  ( 0.000000000000000000, 0.000000000000000000, 1.000000000000000000 ) ) ;
#168 = APPROVAL_ROLE ( '' ) ;
#169 = APPLICATION_PROTOCOL_DEFINITION ( 'international standard', 'config_control_design', 1994, #45 ) ;
#170 = CARTESIAN_POINT ( 'NONE',  ( 1.000000000000000000, 1.224646799147353207E-16, 2.000000000000000000 ) ) ;
#171 = MECHANICAL_CONTEXT ( 'NONE', #45, 'mechanical' ) ;
#172 = DIRECTION ( 'NONE',  ( 0.000000000000000000, 0.000000000000000000, 1.000000000000000000 ) ) ;
#173 = AXIS2_PLACEMENT_3D ( 'NONE', #81, #113, #251 ) ;
#174 = COORDINATED_UNIVERSAL_TIME_OFFSET ( 1, 0, .AHEAD. ) ;
#175 = ADVANCED_FACE ( 'NONE', ( #62 ), #141, .T. ) ;
#176 = CC_DESIGN_PERSON_AND_ORGANIZATION_ASSIGNMENT ( #133, #15, ( #37 ) ) ;
#177 = CC_DESIGN_APPROVAL ( #213, ( #214 ) ) ;
#178 = ORIENTED_EDGE ( 'NONE', *, *, #52, .T. ) ;
#179 = DIRECTION ( 'NONE',  ( -0.000000000000000000, -0.000000000000000000, -1.000000000000000000 ) ) ;
#180 = VECTOR ( 'NONE', #209, 1000.000000000000000 ) ;
#181 = ORIENTED_EDGE ( 'NONE', *, *, #159, .T. ) ;
#182 = CYLINDRICAL_SURFACE ( 'NONE', #183, 2.000000000000000000 ) ;
#183 = AXIS2_PLACEMENT_3D ( 'NONE', #70, #179, #23 ) ;
#184 = CARTESIAN_POINT ( 'NONE',  ( 0.000000000000000000, 0.000000000000000000, 102.0000000000000142 ) ) ;
#185 = CC_DESIGN_DATE_AND_TIME_ASSIGNMENT ( #26, #80, ( #46 ) ) ;
#186 = DATE_AND_TIME ( #99, #107 ) ;
#187 = DIRECTION ( 'NONE',  ( -0.000000000000000000, -0.000000000000000000, -1.000000000000000000 ) ) ;
#188 = PERSON_AND_ORGANIZATION ( #161, #148 ) ;
#189 = PLANE ( 'NONE',  #201 ) ;
#190 = APPROVAL_DATE_TIME ( #115, #221 ) ;
#191 = CARTESIAN_POINT ( 'NONE',  ( -2.000000000000000000, 0.000000000000000000, 2.000000000000000000 ) ) ;
#192 = EDGE_CURVE ( 'NONE', #41, #196, #158, .T. ) ;
#193 = FACE_OUTER_BOUND ( 'NONE', #128, .T. ) ;
#194 = ORIENTED_EDGE ( 'NONE', *, *, #149, .T. ) ;
#195 = ORIENTED_EDGE ( 'NONE', *, *, #82, .F. ) ;
#196 = VERTEX_POINT ( 'NONE', #94 ) ;
#197 = CC_DESIGN_APPROVAL ( #253, ( #46 ) ) ;
#198 = ADVANCED_FACE ( 'NONE', ( #193 ), #114, .T. ) ;
#199 = DIRECTION ( 'NONE',  ( 1.000000000000000000, 0.000000000000000000, 0.000000000000000000 ) ) ;
#200 = VERTEX_POINT ( 'NONE', #191 ) ;
#201 = AXIS2_PLACEMENT_3D ( 'NONE', #30, #172, #11 ) ;
#202 = ADVANCED_BREP_SHAPE_REPRESENTATION ( 'a716', ( #76, #58 ), #230 ) ;
#203 = DIRECTION ( 'NONE',  ( 1.000000000000000000, 0.000000000000000000, -0.000000000000000000 ) ) ;
#204 = CARTESIAN_POINT ( 'NONE',  ( -1.000000000000000000, 0.000000000000000000, 102.0000000000000142 ) ) ;
#205 = PERSON_AND_ORGANIZATION ( #161, #148 ) ;
#206 = FACE_OUTER_BOUND ( 'NONE', #17, .T. ) ;
#207 = CALENDAR_DATE ( 2022, 30, 6 ) ;
#208 = DIRECTION ( 'NONE',  ( -0.000000000000000000, -0.000000000000000000, -1.000000000000000000 ) ) ;
#209 = DIRECTION ( 'NONE',  ( -0.000000000000000000, -0.000000000000000000, -1.000000000000000000 ) ) ;
#210 = AXIS2_PLACEMENT_3D ( 'NONE', #32, #121, #139 ) ;
#211 = ORIENTED_EDGE ( 'NONE', *, *, #24, .T. ) ;
#212 = VERTEX_POINT ( 'NONE', #136 ) ;
#213 = APPROVAL ( #59, 'NEURÈENÝ' ) ;
#214 = SECURITY_CLASSIFICATION ( '', '', #112 ) ;
#215 = ADVANCED_FACE ( 'NONE', ( #206 ), #189, .F. ) ;
#216 = ORIENTED_EDGE ( 'NONE', *, *, #149, .F. ) ;
#217 = VECTOR ( 'NONE', #208, 1000.000000000000000 ) ;
#218 = FACE_BOUND ( 'NONE', #140, .T. ) ;
#219 = DIRECTION ( 'NONE',  ( 0.000000000000000000, 0.000000000000000000, 1.000000000000000000 ) ) ;
#220 = ORIENTED_EDGE ( 'NONE', *, *, #237, .F. ) ;
#221 = APPROVAL ( #29, 'NEURÈENÝ' ) ;
#222 = AXIS2_PLACEMENT_3D ( 'NONE', #240, #239, #106 ) ;
#223 = VECTOR ( 'NONE', #9, 1000.000000000000000 ) ;
#224 = CARTESIAN_POINT ( 'NONE',  ( -2.000000000000000000, 0.000000000000000000, 0.000000000000000000 ) ) ;
#225 = DESIGN_CONTEXT ( 'detailed design', #142, 'design' ) ;
#226 = DATE_AND_TIME ( #207, #65 ) ;
#227 = APPROVAL_DATE_TIME ( #8, #253 ) ;
#228 = COORDINATED_UNIVERSAL_TIME_OFFSET ( 1, 0, .AHEAD. ) ;
#229 = DIRECTION ( 'NONE',  ( 0.000000000000000000, 0.000000000000000000, 1.000000000000000000 ) ) ;
#230 =( GEOMETRIC_REPRESENTATION_CONTEXT ( 3 ) GLOBAL_UNCERTAINTY_ASSIGNED_CONTEXT ( ( #71 ) ) GLOBAL_UNIT_ASSIGNED_CONTEXT ( ( #13, #234, #95 ) ) REPRESENTATION_CONTEXT ( 'NONE', 'WORKASPACE' ) );
#231 = PERSON_AND_ORGANIZATION_ROLE ( 'classification_officer' ) ;
#232 = CARTESIAN_POINT ( 'NONE',  ( -1.000000000000000000, 0.000000000000000000, 102.0000000000000142 ) ) ;
#233 = APPROVAL_ROLE ( '' ) ;
#234 =( NAMED_UNIT ( * ) PLANE_ANGLE_UNIT ( ) SI_UNIT ( $, .RADIAN. ) );
#235 = CARTESIAN_POINT ( 'NONE',  ( 2.000000000000000000, 2.449293598294706414E-16, 2.000000000000000000 ) ) ;
#236 = CC_DESIGN_PERSON_AND_ORGANIZATION_ASSIGNMENT ( #75, #245, ( #38 ) ) ;
#237 = EDGE_CURVE ( 'NONE', #200, #84, #19, .T. ) ;
#238 = DIRECTION ( 'NONE',  ( 0.000000000000000000, 0.000000000000000000, 1.000000000000000000 ) ) ;
#239 = DIRECTION ( 'NONE',  ( 0.000000000000000000, 0.000000000000000000, 1.000000000000000000 ) ) ;
#240 = CARTESIAN_POINT ( 'NONE',  ( 0.000000000000000000, 0.000000000000000000, 0.000000000000000000 ) ) ;
#241 = APPROVAL_DATE_TIME ( #226, #213 ) ;
#242 = LINE ( 'NONE', #49, #78 ) ;
#243 = COORDINATED_UNIVERSAL_TIME_OFFSET ( 1, 0, .AHEAD. ) ;
#244 = EDGE_CURVE ( 'NONE', #196, #143, #27, .T. ) ;
#245 = PERSON_AND_ORGANIZATION_ROLE ( 'design_owner' ) ;
#246 = CARTESIAN_POINT ( 'NONE',  ( 0.000000000000000000, 0.000000000000000000, 102.0000000000000142 ) ) ;
#247 = DIRECTION ( 'NONE',  ( -0.000000000000000000, -0.000000000000000000, -1.000000000000000000 ) ) ;
#248 = APPROVAL_PERSON_ORGANIZATION ( #152, #213, #137 ) ;
#249 = PERSON_AND_ORGANIZATION ( #161, #148 ) ;
#250 = FACE_OUTER_BOUND ( 'NONE', #50, .T. ) ;
#251 = DIRECTION ( 'NONE',  ( 1.000000000000000000, 0.000000000000000000, -0.000000000000000000 ) ) ;
#252 = ORIENTED_EDGE ( 'NONE', *, *, #104, .T. ) ;
#253 = APPROVAL ( #73, 'NEURÈENÝ' ) ;
#254 = EDGE_CURVE ( 'NONE', #41, #162, #153, .T. ) ;
#255 = AXIS2_PLACEMENT_3D ( 'NONE', #145, #129, #21 ) ;
ENDSEC;
END-ISO-10303-21;
