ISO-10303-21;
HEADER;
FILE_DESCRIPTION (( 'STEP AP203' ),
    '1' );
FILE_NAME ('2c67.STEP',
    '2022-07-07T12:49:33',
    ( '' ),
    ( '' ),
    'SwSTEP 2.0',
    'SolidWorks 2019',
    '' );
FILE_SCHEMA (( 'CONFIG_CONTROL_DESIGN' ));
ENDSEC;

DATA;
#1 = PERSON_AND_ORGANIZATION_ROLE ( 'creator' ) ;
#2 = DIRECTION ( 'NONE',  ( -0.000000000000000000, -0.000000000000000000, -1.000000000000000000 ) ) ;
#3 = PLANE ( 'NONE',  #195 ) ;
#4 = CC_DESIGN_DATE_AND_TIME_ASSIGNMENT ( #114, #212, ( #156 ) ) ;
#5 = DIRECTION ( 'NONE',  ( -0.000000000000000000, -0.000000000000000000, -1.000000000000000000 ) ) ;
#6 = DIRECTION ( 'NONE',  ( -1.000000000000000000, 0.000000000000000000, 0.000000000000000000 ) ) ;
#7 = DIRECTION ( 'NONE',  ( 0.000000000000000000, 0.000000000000000000, 1.000000000000000000 ) ) ;
#8 = AXIS2_PLACEMENT_3D ( 'NONE', #168, #220, #9 ) ;
#9 = DIRECTION ( 'NONE',  ( -1.000000000000000000, 0.000000000000000000, 0.000000000000000000 ) ) ;
#10 = CC_DESIGN_PERSON_AND_ORGANIZATION_ASSIGNMENT ( #190, #135, ( #215 ) ) ;
#11 = VERTEX_POINT ( 'NONE', #296 ) ;
#12 = VERTEX_POINT ( 'NONE', #246 ) ;
#13 = CIRCLE ( 'NONE', #216, 2.100000000000000089 ) ;
#14 = DIRECTION ( 'NONE',  ( 1.000000000000000000, 0.000000000000000000, 0.000000000000000000 ) ) ;
#15 = ORIENTED_EDGE ( 'NONE', *, *, #286, .T. ) ;
#16 = AXIS2_PLACEMENT_3D ( 'NONE', #71, #63, #6 ) ;
#17 = PRODUCT_RELATED_PRODUCT_CATEGORY ( 'detail', '', ( #144 ) ) ;
#18 = PERSON_AND_ORGANIZATION ( #171, #103 ) ;
#19 = PERSON_AND_ORGANIZATION ( #171, #103 ) ;
#20 = TOROIDAL_SURFACE ( 'NONE', #231, 2.300000000000000266, 0.2000000000000000111 ) ;
#21 = DIRECTION ( 'NONE',  ( 0.000000000000000000, 0.000000000000000000, 1.000000000000000000 ) ) ;
#22 = SHAPE_DEFINITION_REPRESENTATION ( #112, #295 ) ;
#23 = CC_DESIGN_DATE_AND_TIME_ASSIGNMENT ( #187, #160, ( #215 ) ) ;
#24 = APPROVAL ( #284, 'NEURÈENÝ' ) ;
#25 = PERSON_AND_ORGANIZATION_ROLE ( 'design_owner' ) ;
#26 = CARTESIAN_POINT ( 'NONE',  ( 0.000000000000000000, 0.000000000000000000, 3.000000000000000000 ) ) ;
#27 = CARTESIAN_POINT ( 'NONE',  ( 2.100000000000000089, 2.571758278209441957E-16, 318.0000000000000000 ) ) ;
#28 = DIRECTION ( 'NONE',  ( 1.000000000000000000, 0.000000000000000000, 0.000000000000000000 ) ) ;
#29 = AXIS2_PLACEMENT_3D ( 'NONE', #150, #2, #28 ) ;
#30 = CC_DESIGN_APPROVAL ( #108, ( #57 ) ) ;
#31 = FACE_BOUND ( 'NONE', #186, .T. ) ;
#32 = ORIENTED_EDGE ( 'NONE', *, *, #148, .T. ) ;
#33 = DIRECTION ( 'NONE',  ( 0.000000000000000000, -1.000000000000000000, 0.000000000000000000 ) ) ;
#34 = EDGE_CURVE ( 'NONE', #54, #86, #120, .T. ) ;
#35 = EDGE_LOOP ( 'NONE', ( #223, #83, #227, #180 ) ) ;
#36 = ORIENTED_EDGE ( 'NONE', *, *, #59, .F. ) ;
#37 = APPROVAL_STATUS ( 'not_yet_approved' ) ;
#38 = EDGE_CURVE ( 'NONE', #293, #250, #94, .T. ) ;
#39 = CARTESIAN_POINT ( 'NONE',  ( 0.000000000000000000, 0.000000000000000000, 3.199999999999980638 ) ) ;
#40 = ADVANCED_FACE ( 'NONE', ( #203 ), #104, .T. ) ;
#41 = CIRCLE ( 'NONE', #204, 2.100000000000000089 ) ;
#42 = AXIS2_PLACEMENT_3D ( 'NONE', #172, #261, #145 ) ;
#43 = PERSON_AND_ORGANIZATION ( #171, #103 ) ;
#44 = DIRECTION ( 'NONE',  ( 1.000000000000000000, 0.000000000000000000, 0.000000000000000000 ) ) ;
#45 = CIRCLE ( 'NONE', #224, 4.000000000000000000 ) ;
#46 = LINE ( 'NONE', #198, #248 ) ;
#47 = DIRECTION ( 'NONE',  ( 1.000000000000000000, 0.000000000000000000, 0.000000000000000000 ) ) ;
#48 = DESIGN_CONTEXT ( 'detailed design', #87, 'design' ) ;
#49 = DIRECTION ( 'NONE',  ( -0.000000000000000000, -0.000000000000000000, -1.000000000000000000 ) ) ;
#50 = CC_DESIGN_PERSON_AND_ORGANIZATION_ASSIGNMENT ( #62, #230, ( #156 ) ) ;
#51 = CYLINDRICAL_SURFACE ( 'NONE', #16, 2.100000000000000089 ) ;
#52 = CIRCLE ( 'NONE', #42, 4.000000000000000000 ) ;
#53 = CARTESIAN_POINT ( 'NONE',  ( 0.000000000000000000, 0.000000000000000000, 3.000000000000000000 ) ) ;
#54 = VERTEX_POINT ( 'NONE', #80 ) ;
#55 = CARTESIAN_POINT ( 'NONE',  ( -2.300000000000000266, 2.816687638038912549E-16, 3.199999999999980638 ) ) ;
#56 = VERTEX_POINT ( 'NONE', #153 ) ;
#57 = PRODUCT_DEFINITION_FORMATION_WITH_SPECIFIED_SOURCE ( 'LIBOVOLNÝ', '', #144, .NOT_KNOWN. ) ;
#58 = FACE_OUTER_BOUND ( 'NONE', #181, .T. ) ;
#59 = EDGE_CURVE ( 'NONE', #222, #11, #162, .T. ) ;
#60 = ORIENTED_EDGE ( 'NONE', *, *, #228, .F. ) ;
#61 = AXIS2_PLACEMENT_3D ( 'NONE', #53, #206, #294 ) ;
#62 = PERSON_AND_ORGANIZATION ( #171, #103 ) ;
#63 = DIRECTION ( 'NONE',  ( -0.000000000000000000, -0.000000000000000000, -1.000000000000000000 ) ) ;
#64 = COORDINATED_UNIVERSAL_TIME_OFFSET ( 1, 0, .AHEAD. ) ;
#65 = DIRECTION ( 'NONE',  ( 0.000000000000000000, 0.000000000000000000, 1.000000000000000000 ) ) ;
#66 = FACE_OUTER_BOUND ( 'NONE', #184, .T. ) ;
#67 = ADVANCED_FACE ( 'NONE', ( #58 ), #76, .F. ) ;
#68 = MECHANICAL_CONTEXT ( 'NONE', #75, 'mechanical' ) ;
#69 = APPROVAL_ROLE ( '' ) ;
#70 = CLOSED_SHELL ( 'NONE', ( #117, #197, #40, #173, #73, #67, #165, #273, #278 ) ) ;
#71 = CARTESIAN_POINT ( 'NONE',  ( 0.000000000000000000, 0.000000000000000000, 318.0000000000000000 ) ) ;
#72 = DIRECTION ( 'NONE',  ( 1.000000000000000000, 0.000000000000000000, 0.000000000000000000 ) ) ;
#73 = ADVANCED_FACE ( 'NONE', ( #31, #152 ), #241, .T. ) ;
#74 = DIRECTION ( 'NONE',  ( 1.000000000000000000, 0.000000000000000000, -0.000000000000000000 ) ) ;
#75 = APPLICATION_CONTEXT ( 'configuration controlled 3d designs of mechanical parts and assemblies' ) ;
#76 = PLANE ( 'NONE',  #235 ) ;
#77 =( GEOMETRIC_REPRESENTATION_CONTEXT ( 3 ) GLOBAL_UNCERTAINTY_ASSIGNED_CONTEXT ( ( #125 ) ) GLOBAL_UNIT_ASSIGNED_CONTEXT ( ( #97, #93, #142 ) ) REPRESENTATION_CONTEXT ( 'NONE', 'WORKASPACE' ) );
#78 = VERTEX_POINT ( 'NONE', #307 ) ;
#79 = EDGE_CURVE ( 'NONE', #177, #54, #263, .T. ) ;
#80 = CARTESIAN_POINT ( 'NONE',  ( 2.100000000000000089, 2.571758278209441957E-16, 3.199999999999980638 ) ) ;
#81 = DIRECTION ( 'NONE',  ( -1.000000000000000000, 1.224646799147353207E-16, 0.000000000000000000 ) ) ;
#82 = CALENDAR_DATE ( 2022, 7, 7 ) ;
#83 = ORIENTED_EDGE ( 'NONE', *, *, #221, .F. ) ;
#84 = DATE_AND_TIME ( #274, #121 ) ;
#85 = MANIFOLD_SOLID_BREP ( 'Zaoblit1', #70 ) ;
#86 = VERTEX_POINT ( 'NONE', #239 ) ;
#87 = APPLICATION_CONTEXT ( 'configuration controlled 3d designs of mechanical parts and assemblies' ) ;
#88 = DATE_AND_TIME ( #237, #300 ) ;
#89 = CIRCLE ( 'NONE', #260, 2.100000000000000089 ) ;
#90 = DIRECTION ( 'NONE',  ( 0.000000000000000000, 0.000000000000000000, 1.000000000000000000 ) ) ;
#91 = DIRECTION ( 'NONE',  ( -0.000000000000000000, -0.000000000000000000, -1.000000000000000000 ) ) ;
#92 = DIRECTION ( 'NONE',  ( 0.000000000000000000, 0.000000000000000000, 1.000000000000000000 ) ) ;
#93 =( NAMED_UNIT ( * ) PLANE_ANGLE_UNIT ( ) SI_UNIT ( $, .RADIAN. ) );
#94 = CIRCLE ( 'NONE', #292, 4.000000000000000000 ) ;
#95 = CC_DESIGN_SECURITY_CLASSIFICATION ( #156, ( #57 ) ) ;
#96 = DIRECTION ( 'NONE',  ( 1.000000000000000000, 0.000000000000000000, 0.000000000000000000 ) ) ;
#97 =( LENGTH_UNIT ( ) NAMED_UNIT ( * ) SI_UNIT ( .MILLI., .METRE. ) );
#98 = FACE_OUTER_BOUND ( 'NONE', #107, .T. ) ;
#99 = DIRECTION ( 'NONE',  ( 1.000000000000000000, 0.000000000000000000, -0.000000000000000000 ) ) ;
#100 = DIRECTION ( 'NONE',  ( 1.000000000000000000, 0.000000000000000000, 0.000000000000000000 ) ) ;
#101 = ORIENTED_EDGE ( 'NONE', *, *, #59, .T. ) ;
#102 = CARTESIAN_POINT ( 'NONE',  ( 2.300000000000000266, 0.000000000000000000, 3.199999999999980638 ) ) ;
#103 = ORGANIZATION ( 'NEURÈENÝ', 'NEURÈENÝ', '' ) ;
#104 = CYLINDRICAL_SURFACE ( 'NONE', #61, 4.000000000000000000 ) ;
#105 = ORIENTED_EDGE ( 'NONE', *, *, #136, .T. ) ;
#106 = ORIENTED_EDGE ( 'NONE', *, *, #34, .F. ) ;
#107 = EDGE_LOOP ( 'NONE', ( #275, #101, #268, #106 ) ) ;
#108 = APPROVAL ( #251, 'NEURÈENÝ' ) ;
#109 = AXIS2_PLACEMENT_3D ( 'NONE', #163, #240, #170 ) ;
#110 = AXIS2_PLACEMENT_3D ( 'NONE', #119, #167, #96 ) ;
#111 = APPROVAL_DATE_TIME ( #84, #290 ) ;
#112 = PRODUCT_DEFINITION_SHAPE ( 'NONE', 'NONE',  #215 ) ;
#113 = VECTOR ( 'NONE', #191, 1000.000000000000000 ) ;
#114 = DATE_AND_TIME ( #82, #183 ) ;
#115 = DIRECTION ( 'NONE',  ( 1.000000000000000000, 0.000000000000000000, 0.000000000000000000 ) ) ;
#116 = DIRECTION ( 'NONE',  ( 0.000000000000000000, 0.000000000000000000, 1.000000000000000000 ) ) ;
#117 = ADVANCED_FACE ( 'NONE', ( #98 ), #20, .F. ) ;
#118 = APPLICATION_PROTOCOL_DEFINITION ( 'international standard', 'config_control_design', 1994, #75 ) ;
#119 = CARTESIAN_POINT ( 'NONE',  ( 0.000000000000000000, 0.000000000000000000, 0.000000000000000000 ) ) ;
#120 = CIRCLE ( 'NONE', #126, 0.2000000000000000944 ) ;
#121 = LOCAL_TIME ( 14, 49, 33.00000000000000000, #185 ) ;
#122 = APPLICATION_PROTOCOL_DEFINITION ( 'international standard', 'config_control_design', 1994, #87 ) ;
#123 = CARTESIAN_POINT ( 'NONE',  ( 0.000000000000000000, 0.000000000000000000, 318.0000000000000000 ) ) ;
#124 = DIRECTION ( 'NONE',  ( 0.000000000000000000, 0.000000000000000000, 1.000000000000000000 ) ) ;
#125 = UNCERTAINTY_MEASURE_WITH_UNIT (LENGTH_MEASURE( 1.000000000000000082E-05 ), #97, 'distance_accuracy_value', 'NONE');
#126 = AXIS2_PLACEMENT_3D ( 'NONE', #102, #33, #131 ) ;
#127 = FACE_OUTER_BOUND ( 'NONE', #266, .T. ) ;
#128 = CARTESIAN_POINT ( 'NONE',  ( 0.000000000000000000, 0.000000000000000000, 3.000000000000000000 ) ) ;
#129 = EDGE_CURVE ( 'NONE', #12, #222, #139, .T. ) ;
#130 = ORIENTED_EDGE ( 'NONE', *, *, #34, .T. ) ;
#131 = DIRECTION ( 'NONE',  ( 0.000000000000000000, 0.000000000000000000, -1.000000000000000000 ) ) ;
#132 = LOCAL_TIME ( 14, 49, 33.00000000000000000, #253 ) ;
#133 = DIRECTION ( 'NONE',  ( 0.000000000000000000, 0.000000000000000000, 1.000000000000000000 ) ) ;
#134 = EDGE_CURVE ( 'NONE', #250, #78, #189, .T. ) ;
#135 = PERSON_AND_ORGANIZATION_ROLE ( 'creator' ) ;
#136 = EDGE_CURVE ( 'NONE', #11, #86, #287, .T. ) ;
#137 = DATE_AND_TIME ( #138, #132 ) ;
#138 = CALENDAR_DATE ( 2022, 7, 7 ) ;
#139 = LINE ( 'NONE', #279, #146 ) ;
#140 = CIRCLE ( 'NONE', #29, 2.300000000000000266 ) ;
#141 = APPROVAL_ROLE ( '' ) ;
#142 =( NAMED_UNIT ( * ) SI_UNIT ( $, .STERADIAN. ) SOLID_ANGLE_UNIT ( ) );
#143 = FACE_OUTER_BOUND ( 'NONE', #157, .T. ) ;
#144 = PRODUCT ( '2c67', '2c67', '', ( #68 ) ) ;
#145 = DIRECTION ( 'NONE',  ( 1.000000000000000000, 0.000000000000000000, 0.000000000000000000 ) ) ;
#146 = VECTOR ( 'NONE', #281, 1000.000000000000000 ) ;
#147 = DIRECTION ( 'NONE',  ( 0.000000000000000000, 0.000000000000000000, 1.000000000000000000 ) ) ;
#148 = EDGE_CURVE ( 'NONE', #86, #11, #140, .T. ) ;
#149 = FACE_OUTER_BOUND ( 'NONE', #35, .T. ) ;
#150 = CARTESIAN_POINT ( 'NONE',  ( 0.000000000000000000, 0.000000000000000000, 3.000000000000000000 ) ) ;
#151 = CIRCLE ( 'NONE', #242, 2.100000000000000089 ) ;
#152 = FACE_OUTER_BOUND ( 'NONE', #244, .T. ) ;
#153 = CARTESIAN_POINT ( 'NONE',  ( 4.000000000000000000, 4.898587196589412829E-16, 0.000000000000000000 ) ) ;
#154 = ORIENTED_EDGE ( 'NONE', *, *, #221, .T. ) ;
#155 = ORIENTED_EDGE ( 'NONE', *, *, #136, .F. ) ;
#156 = SECURITY_CLASSIFICATION ( '', '', #299 ) ;
#157 = EDGE_LOOP ( 'NONE', ( #15, #178 ) ) ;
#158 = CC_DESIGN_PERSON_AND_ORGANIZATION_ASSIGNMENT ( #43, #25, ( #144 ) ) ;
#159 = ORIENTED_EDGE ( 'NONE', *, *, #211, .F. ) ;
#160 = DATE_TIME_ROLE ( 'creation_date' ) ;
#161 = ORIENTED_EDGE ( 'NONE', *, *, #38, .F. ) ;
#162 = CIRCLE ( 'NONE', #271, 0.2000000000000000944 ) ;
#163 = CARTESIAN_POINT ( 'NONE',  ( 0.000000000000000000, 0.000000000000000000, 318.0000000000000000 ) ) ;
#164 = VECTOR ( 'NONE', #49, 1000.000000000000000 ) ;
#165 = ADVANCED_FACE ( 'NONE', ( #127 ), #51, .T. ) ;
#166 = CARTESIAN_POINT ( 'NONE',  ( 4.000000000000000000, 4.898587196589412829E-16, 3.000000000000000000 ) ) ;
#167 = DIRECTION ( 'NONE',  ( 0.000000000000000000, 0.000000000000000000, 1.000000000000000000 ) ) ;
#168 = CARTESIAN_POINT ( 'NONE',  ( 0.000000000000000000, 0.000000000000000000, 3.000000000000000000 ) ) ;
#169 = DIRECTION ( 'NONE',  ( 1.000000000000000000, 0.000000000000000000, -0.000000000000000000 ) ) ;
#170 = DIRECTION ( 'NONE',  ( -1.000000000000000000, 0.000000000000000000, 0.000000000000000000 ) ) ;
#171 = PERSON ( 'NEURÈENÝ', 'NEURÈENÝ', 'NEURÈENÝ', ('NEURÈENÝ'), ('NEURÈENÝ'), ('NEURÈENÝ') ) ;
#172 = CARTESIAN_POINT ( 'NONE',  ( 0.000000000000000000, 0.000000000000000000, 0.000000000000000000 ) ) ;
#173 = ADVANCED_FACE ( 'NONE', ( #149 ), #236, .T. ) ;
#174 = FACE_OUTER_BOUND ( 'NONE', #247, .T. ) ;
#175 = CARTESIAN_POINT ( 'NONE',  ( 0.000000000000000000, 0.000000000000000000, 0.000000000000000000 ) ) ;
#176 = APPROVAL_PERSON_ORGANIZATION ( #19, #108, #276 ) ;
#177 = VERTEX_POINT ( 'NONE', #243 ) ;
#178 = ORIENTED_EDGE ( 'NONE', *, *, #211, .T. ) ;
#179 = CC_DESIGN_PERSON_AND_ORGANIZATION_ASSIGNMENT ( #301, #304, ( #57 ) ) ;
#180 = ORIENTED_EDGE ( 'NONE', *, *, #252, .T. ) ;
#181 = EDGE_LOOP ( 'NONE', ( #297, #60 ) ) ;
#182 = AXIS2_PLACEMENT_3D ( 'NONE', #128, #264, #99 ) ;
#183 = LOCAL_TIME ( 14, 49, 33.00000000000000000, #64 ) ;
#184 = EDGE_LOOP ( 'NONE', ( #36, #269, #130, #155 ) ) ;
#185 = COORDINATED_UNIVERSAL_TIME_OFFSET ( 1, 0, .AHEAD. ) ;
#186 = EDGE_LOOP ( 'NONE', ( #32, #105 ) ) ;
#187 = DATE_AND_TIME ( #280, #306 ) ;
#188 = TOROIDAL_SURFACE ( 'NONE', #238, 2.300000000000000266, 0.2000000000000000111 ) ;
#189 = LINE ( 'NONE', #199, #164 ) ;
#190 = PERSON_AND_ORGANIZATION ( #171, #103 ) ;
#191 = DIRECTION ( 'NONE',  ( -0.000000000000000000, -0.000000000000000000, -1.000000000000000000 ) ) ;
#192 = EDGE_CURVE ( 'NONE', #222, #54, #41, .T. ) ;
#193 = DIRECTION ( 'NONE',  ( 0.000000000000000000, 0.000000000000000000, 1.000000000000000000 ) ) ;
#194 = AXIS2_PLACEMENT_3D ( 'NONE', #262, #147, #255 ) ;
#195 = AXIS2_PLACEMENT_3D ( 'NONE', #196, #193, #169 ) ;
#196 = CARTESIAN_POINT ( 'NONE',  ( 0.000000000000000000, 0.000000000000000000, 318.0000000000000000 ) ) ;
#197 = ADVANCED_FACE ( 'NONE', ( #174 ), #288, .T. ) ;
#198 = CARTESIAN_POINT ( 'NONE',  ( 4.000000000000000000, 4.898587196589412829E-16, 3.000000000000000000 ) ) ;
#199 = CARTESIAN_POINT ( 'NONE',  ( -4.000000000000000000, 0.000000000000000000, 3.000000000000000000 ) ) ;
#200 = APPROVAL_PERSON_ORGANIZATION ( #18, #290, #141 ) ;
#201 = DIRECTION ( 'NONE',  ( 1.000000000000000000, 0.000000000000000000, 0.000000000000000000 ) ) ;
#202 = CARTESIAN_POINT ( 'NONE',  ( -4.000000000000000000, 0.000000000000000000, 3.000000000000000000 ) ) ;
#203 = FACE_OUTER_BOUND ( 'NONE', #291, .T. ) ;
#204 = AXIS2_PLACEMENT_3D ( 'NONE', #285, #289, #100 ) ;
#205 = ORIENTED_EDGE ( 'NONE', *, *, #245, .T. ) ;
#206 = DIRECTION ( 'NONE',  ( -0.000000000000000000, -0.000000000000000000, -1.000000000000000000 ) ) ;
#207 = ORIENTED_EDGE ( 'NONE', *, *, #134, .F. ) ;
#208 = ORIENTED_EDGE ( 'NONE', *, *, #228, .T. ) ;
#209 = COORDINATED_UNIVERSAL_TIME_OFFSET ( 1, 0, .AHEAD. ) ;
#210 = CC_DESIGN_APPROVAL ( #24, ( #215 ) ) ;
#211 = EDGE_CURVE ( 'NONE', #177, #12, #151, .T. ) ;
#212 = DATE_TIME_ROLE ( 'classification_date' ) ;
#213 = CARTESIAN_POINT ( 'NONE',  ( 0.000000000000000000, 0.000000000000000000, 0.000000000000000000 ) ) ;
#214 = CARTESIAN_POINT ( 'NONE',  ( 0.000000000000000000, 0.000000000000000000, 3.199999999999980638 ) ) ;
#215 = PRODUCT_DEFINITION ( 'NEZNÁMÝ', '', #57, #48 ) ;
#216 = AXIS2_PLACEMENT_3D ( 'NONE', #257, #116, #283 ) ;
#217 = PERSON_AND_ORGANIZATION ( #171, #103 ) ;
#218 = CARTESIAN_POINT ( 'NONE',  ( -2.100000000000000089, 0.000000000000000000, 3.199999999999980638 ) ) ;
#219 = CARTESIAN_POINT ( 'NONE',  ( 0.000000000000000000, 0.000000000000000000, 3.199999999999980638 ) ) ;
#220 = DIRECTION ( 'NONE',  ( -0.000000000000000000, -0.000000000000000000, -1.000000000000000000 ) ) ;
#221 = EDGE_CURVE ( 'NONE', #250, #293, #282, .T. ) ;
#222 = VERTEX_POINT ( 'NONE', #218 ) ;
#223 = ORIENTED_EDGE ( 'NONE', *, *, #267, .F. ) ;
#224 = AXIS2_PLACEMENT_3D ( 'NONE', #213, #124, #47 ) ;
#225 = CARTESIAN_POINT ( 'NONE',  ( 0.000000000000000000, 0.000000000000000000, 3.000000000000000000 ) ) ;
#226 = DIRECTION ( 'NONE',  ( 1.224646799147353207E-16, 1.000000000000000000, -0.000000000000000000 ) ) ;
#227 = ORIENTED_EDGE ( 'NONE', *, *, #134, .T. ) ;
#228 = EDGE_CURVE ( 'NONE', #56, #78, #45, .T. ) ;
#229 = ORIENTED_EDGE ( 'NONE', *, *, #192, .T. ) ;
#230 = PERSON_AND_ORGANIZATION_ROLE ( 'classification_officer' ) ;
#231 = AXIS2_PLACEMENT_3D ( 'NONE', #39, #65, #44 ) ;
#232 = CC_DESIGN_APPROVAL ( #290, ( #156 ) ) ;
#233 = APPROVAL_DATE_TIME ( #137, #108 ) ;
#234 = ORIENTED_EDGE ( 'NONE', *, *, #79, .T. ) ;
#235 = AXIS2_PLACEMENT_3D ( 'NONE', #175, #90, #74 ) ;
#236 = CYLINDRICAL_SURFACE ( 'NONE', #8, 4.000000000000000000 ) ;
#237 = CALENDAR_DATE ( 2022, 7, 7 ) ;
#238 = AXIS2_PLACEMENT_3D ( 'NONE', #214, #92, #259 ) ;
#239 = CARTESIAN_POINT ( 'NONE',  ( 2.300000000000000266, 0.000000000000000000, 2.999999999999990674 ) ) ;
#240 = DIRECTION ( 'NONE',  ( -0.000000000000000000, -0.000000000000000000, -1.000000000000000000 ) ) ;
#241 = PLANE ( 'NONE',  #182 ) ;
#242 = AXIS2_PLACEMENT_3D ( 'NONE', #123, #21, #115 ) ;
#243 = CARTESIAN_POINT ( 'NONE',  ( 2.100000000000000089, 2.571758278209441957E-16, 318.0000000000000000 ) ) ;
#244 = EDGE_LOOP ( 'NONE', ( #154, #302 ) ) ;
#245 = EDGE_CURVE ( 'NONE', #54, #222, #89, .T. ) ;
#246 = CARTESIAN_POINT ( 'NONE',  ( -2.100000000000000089, 0.000000000000000000, 318.0000000000000000 ) ) ;
#247 = EDGE_LOOP ( 'NONE', ( #159, #234, #205, #270 ) ) ;
#248 = VECTOR ( 'NONE', #5, 1000.000000000000000 ) ;
#249 = ORIENTED_EDGE ( 'NONE', *, *, #267, .T. ) ;
#250 = VERTEX_POINT ( 'NONE', #202 ) ;
#251 = APPROVAL_STATUS ( 'not_yet_approved' ) ;
#252 = EDGE_CURVE ( 'NONE', #78, #56, #52, .T. ) ;
#253 = COORDINATED_UNIVERSAL_TIME_OFFSET ( 1, 0, .AHEAD. ) ;
#254 = ORIENTED_EDGE ( 'NONE', *, *, #286, .F. ) ;
#255 = DIRECTION ( 'NONE',  ( 1.000000000000000000, 0.000000000000000000, 0.000000000000000000 ) ) ;
#256 = APPROVAL_DATE_TIME ( #88, #24 ) ;
#257 = CARTESIAN_POINT ( 'NONE',  ( 0.000000000000000000, 0.000000000000000000, 318.0000000000000000 ) ) ;
#258 = CC_DESIGN_PERSON_AND_ORGANIZATION_ASSIGNMENT ( #277, #1, ( #57 ) ) ;
#259 = DIRECTION ( 'NONE',  ( 1.000000000000000000, 0.000000000000000000, 0.000000000000000000 ) ) ;
#260 = AXIS2_PLACEMENT_3D ( 'NONE', #219, #7, #72 ) ;
#261 = DIRECTION ( 'NONE',  ( 0.000000000000000000, 0.000000000000000000, 1.000000000000000000 ) ) ;
#262 = CARTESIAN_POINT ( 'NONE',  ( 0.000000000000000000, 0.000000000000000000, 3.000000000000000000 ) ) ;
#263 = LINE ( 'NONE', #27, #113 ) ;
#264 = DIRECTION ( 'NONE',  ( 0.000000000000000000, 0.000000000000000000, 1.000000000000000000 ) ) ;
#265 = AXIS2_PLACEMENT_3D ( 'NONE', #26, #91, #201 ) ;
#266 = EDGE_LOOP ( 'NONE', ( #298, #254, #272, #229 ) ) ;
#267 = EDGE_CURVE ( 'NONE', #293, #56, #46, .T. ) ;
#268 = ORIENTED_EDGE ( 'NONE', *, *, #148, .F. ) ;
#269 = ORIENTED_EDGE ( 'NONE', *, *, #245, .F. ) ;
#270 = ORIENTED_EDGE ( 'NONE', *, *, #129, .F. ) ;
#271 = AXIS2_PLACEMENT_3D ( 'NONE', #55, #226, #81 ) ;
#272 = ORIENTED_EDGE ( 'NONE', *, *, #129, .T. ) ;
#273 = ADVANCED_FACE ( 'NONE', ( #143 ), #3, .T. ) ;
#274 = CALENDAR_DATE ( 2022, 7, 7 ) ;
#275 = ORIENTED_EDGE ( 'NONE', *, *, #192, .F. ) ;
#276 = APPROVAL_ROLE ( '' ) ;
#277 = PERSON_AND_ORGANIZATION ( #171, #103 ) ;
#278 = ADVANCED_FACE ( 'NONE', ( #66 ), #188, .F. ) ;
#279 = CARTESIAN_POINT ( 'NONE',  ( -2.100000000000000089, 0.000000000000000000, 318.0000000000000000 ) ) ;
#280 = CALENDAR_DATE ( 2022, 7, 7 ) ;
#281 = DIRECTION ( 'NONE',  ( -0.000000000000000000, -0.000000000000000000, -1.000000000000000000 ) ) ;
#282 = CIRCLE ( 'NONE', #194, 4.000000000000000000 ) ;
#283 = DIRECTION ( 'NONE',  ( 1.000000000000000000, 0.000000000000000000, 0.000000000000000000 ) ) ;
#284 = APPROVAL_STATUS ( 'not_yet_approved' ) ;
#285 = CARTESIAN_POINT ( 'NONE',  ( 0.000000000000000000, 0.000000000000000000, 3.199999999999980638 ) ) ;
#286 = EDGE_CURVE ( 'NONE', #12, #177, #13, .T. ) ;
#287 = CIRCLE ( 'NONE', #265, 2.300000000000000266 ) ;
#288 = CYLINDRICAL_SURFACE ( 'NONE', #109, 2.100000000000000089 ) ;
#289 = DIRECTION ( 'NONE',  ( 0.000000000000000000, 0.000000000000000000, 1.000000000000000000 ) ) ;
#290 = APPROVAL ( #37, 'NEURÈENÝ' ) ;
#291 = EDGE_LOOP ( 'NONE', ( #161, #249, #208, #207 ) ) ;
#292 = AXIS2_PLACEMENT_3D ( 'NONE', #225, #133, #14 ) ;
#293 = VERTEX_POINT ( 'NONE', #166 ) ;
#294 = DIRECTION ( 'NONE',  ( -1.000000000000000000, 0.000000000000000000, 0.000000000000000000 ) ) ;
#295 = ADVANCED_BREP_SHAPE_REPRESENTATION ( '2c67', ( #85, #110 ), #77 ) ;
#296 = CARTESIAN_POINT ( 'NONE',  ( -2.300000000000000266, 2.816687638038912549E-16, 2.999999999999990674 ) ) ;
#297 = ORIENTED_EDGE ( 'NONE', *, *, #252, .F. ) ;
#298 = ORIENTED_EDGE ( 'NONE', *, *, #79, .F. ) ;
#299 = SECURITY_CLASSIFICATION_LEVEL ( 'unclassified' ) ;
#300 = LOCAL_TIME ( 14, 49, 33.00000000000000000, #303 ) ;
#301 = PERSON_AND_ORGANIZATION ( #171, #103 ) ;
#302 = ORIENTED_EDGE ( 'NONE', *, *, #38, .T. ) ;
#303 = COORDINATED_UNIVERSAL_TIME_OFFSET ( 1, 0, .AHEAD. ) ;
#304 = PERSON_AND_ORGANIZATION_ROLE ( 'design_supplier' ) ;
#305 = APPROVAL_PERSON_ORGANIZATION ( #217, #24, #69 ) ;
#306 = LOCAL_TIME ( 14, 49, 33.00000000000000000, #209 ) ;
#307 = CARTESIAN_POINT ( 'NONE',  ( -4.000000000000000000, 0.000000000000000000, 0.000000000000000000 ) ) ;
ENDSEC;
END-ISO-10303-21;
