ISO-10303-21;
HEADER;
FILE_DESCRIPTION (( 'STEP AP203' ),
    '1' );
FILE_NAME ('0a75.STEP',
    '2023-02-12T11:32:32',
    ( '' ),
    ( '' ),
    'SwSTEP 2.0',
    'SolidWorks 2019',
    '' );
FILE_SCHEMA (( 'CONFIG_CONTROL_DESIGN' ));
ENDSEC;

DATA;
#1 = CIRCLE ( 'NONE', #146, 3.100000000000000089 ) ;
#2 = EDGE_LOOP ( 'NONE', ( #26, #197, #96, #177 ) ) ;
#3 = ORIENTED_EDGE ( 'NONE', *, *, #193, .F. ) ;
#4 = AXIS2_PLACEMENT_3D ( 'NONE', #77, #92, #14 ) ;
#5 = CC_DESIGN_DATE_AND_TIME_ASSIGNMENT ( #50, #9, ( #69 ) ) ;
#6 = ORIENTED_EDGE ( 'NONE', *, *, #135, .F. ) ;
#7 = PERSON_AND_ORGANIZATION ( #210, #230 ) ;
#8 = VERTEX_POINT ( 'NONE', #98 ) ;
#9 = DATE_TIME_ROLE ( 'creation_date' ) ;
#10 = AXIS2_PLACEMENT_3D ( 'NONE', #122, #160, #99 ) ;
#11 = MECHANICAL_CONTEXT ( 'NONE', #108, 'mechanical' ) ;
#12 = AXIS2_PLACEMENT_3D ( 'NONE', #35, #100, #188 ) ;
#13 = CARTESIAN_POINT ( 'NONE',  ( -3.100000000000000089, 0.000000000000000000, 5.000000000000000000 ) ) ;
#14 = DIRECTION ( 'NONE',  ( 1.000000000000000000, 0.000000000000000000, -0.000000000000000000 ) ) ;
#15 = PRODUCT_DEFINITION_SHAPE ( 'NONE', 'NONE',  #69 ) ;
#16 = DIRECTION ( 'NONE',  ( 1.000000000000000000, 0.000000000000000000, 0.000000000000000000 ) ) ;
#17 = DIRECTION ( 'NONE',  ( 0.000000000000000000, 0.000000000000000000, 1.000000000000000000 ) ) ;
#18 = AXIS2_PLACEMENT_3D ( 'NONE', #74, #119, #145 ) ;
#19 = CC_DESIGN_PERSON_AND_ORGANIZATION_ASSIGNMENT ( #224, #52, ( #40 ) ) ;
#20 = APPROVAL_PERSON_ORGANIZATION ( #7, #95, #118 ) ;
#21 = ADVANCED_FACE ( 'NONE', ( #179 ), #159, .F. ) ;
#22 = AXIS2_PLACEMENT_3D ( 'NONE', #186, #80, #57 ) ;
#23 = ORIENTED_EDGE ( 'NONE', *, *, #73, .F. ) ;
#24 = APPROVAL_PERSON_ORGANIZATION ( #34, #143, #229 ) ;
#25 = CALENDAR_DATE ( 2023, 12, 2 ) ;
#26 = ORIENTED_EDGE ( 'NONE', *, *, #152, .F. ) ;
#27 = COORDINATED_UNIVERSAL_TIME_OFFSET ( 1, 0, .AHEAD. ) ;
#28 = DIRECTION ( 'NONE',  ( -0.000000000000000000, -0.000000000000000000, -1.000000000000000000 ) ) ;
#29 = APPROVAL_ROLE ( '' ) ;
#30 = FACE_OUTER_BOUND ( 'NONE', #2, .T. ) ;
#31 = CC_DESIGN_PERSON_AND_ORGANIZATION_ASSIGNMENT ( #87, #97, ( #251 ) ) ;
#32 = PERSON_AND_ORGANIZATION ( #210, #230 ) ;
#33 = FACE_OUTER_BOUND ( 'NONE', #240, .T. ) ;
#34 = PERSON_AND_ORGANIZATION ( #210, #230 ) ;
#35 = CARTESIAN_POINT ( 'NONE',  ( 0.000000000000000000, 0.000000000000000000, 0.000000000000000000 ) ) ;
#36 = LOCAL_TIME ( 12, 32, 32.00000000000000000, #27 ) ;
#37 = CARTESIAN_POINT ( 'NONE',  ( -3.100000000000000089, 0.000000000000000000, 315.0000000000000000 ) ) ;
#38 = CIRCLE ( 'NONE', #234, 3.100000000000000089 ) ;
#39 =( NAMED_UNIT ( * ) PLANE_ANGLE_UNIT ( ) SI_UNIT ( $, .RADIAN. ) );
#40 = PRODUCT_DEFINITION_FORMATION_WITH_SPECIFIED_SOURCE ( 'LIBOVOLNÝ', '', #58, .NOT_KNOWN. ) ;
#41 = CYLINDRICAL_SURFACE ( 'NONE', #55, 6.000000000000000888 ) ;
#42 = AXIS2_PLACEMENT_3D ( 'NONE', #187, #103, #105 ) ;
#43 = DIRECTION ( 'NONE',  ( 1.000000000000000000, 0.000000000000000000, 0.000000000000000000 ) ) ;
#44 = ADVANCED_FACE ( 'NONE', ( #162 ), #138, .T. ) ;
#45 = ORIENTED_EDGE ( 'NONE', *, *, #153, .F. ) ;
#46 = CC_DESIGN_APPROVAL ( #184, ( #40 ) ) ;
#47 = EDGE_LOOP ( 'NONE', ( #156, #154 ) ) ;
#48 = VERTEX_POINT ( 'NONE', #90 ) ;
#49 = CIRCLE ( 'NONE', #189, 6.000000000000000888 ) ;
#50 = DATE_AND_TIME ( #246, #172 ) ;
#51 = CARTESIAN_POINT ( 'NONE',  ( 0.000000000000000000, 0.000000000000000000, 5.000000000000000000 ) ) ;
#52 = PERSON_AND_ORGANIZATION_ROLE ( 'design_supplier' ) ;
#53 = EDGE_CURVE ( 'NONE', #68, #117, #1, .T. ) ;
#54 = CARTESIAN_POINT ( 'NONE',  ( -6.000000000000000888, 0.000000000000000000, 5.000000000000000000 ) ) ;
#55 = AXIS2_PLACEMENT_3D ( 'NONE', #235, #254, #149 ) ;
#56 = DIRECTION ( 'NONE',  ( -1.000000000000000000, 0.000000000000000000, 0.000000000000000000 ) ) ;
#57 = DIRECTION ( 'NONE',  ( 1.000000000000000000, 0.000000000000000000, -0.000000000000000000 ) ) ;
#58 = PRODUCT ( '0a75', '0a75', '', ( #11 ) ) ;
#59 = ADVANCED_FACE ( 'NONE', ( #248 ), #245, .T. ) ;
#60 = DATE_AND_TIME ( #231, #208 ) ;
#61 = CARTESIAN_POINT ( 'NONE',  ( 6.000000000000000888, 7.347880794884120722E-16, 5.000000000000000000 ) ) ;
#62 = ORIENTED_EDGE ( 'NONE', *, *, #232, .T. ) ;
#63 = DIRECTION ( 'NONE',  ( 0.000000000000000000, 0.000000000000000000, 1.000000000000000000 ) ) ;
#64 = CC_DESIGN_APPROVAL ( #143, ( #251 ) ) ;
#65 = VECTOR ( 'NONE', #76, 1000.000000000000000 ) ;
#66 = EDGE_LOOP ( 'NONE', ( #174, #219, #243, #3 ) ) ;
#67 = ORIENTED_EDGE ( 'NONE', *, *, #152, .T. ) ;
#68 = VERTEX_POINT ( 'NONE', #13 ) ;
#69 = PRODUCT_DEFINITION ( 'NEZNÁMÝ', '', #40, #252 ) ;
#70 = LOCAL_TIME ( 12, 32, 32.00000000000000000, #178 ) ;
#71 = CALENDAR_DATE ( 2023, 12, 2 ) ;
#72 = CARTESIAN_POINT ( 'NONE',  ( 3.100000000000000089, 3.796405077356794918E-16, 5.000000000000000000 ) ) ;
#73 = EDGE_CURVE ( 'NONE', #110, #8, #228, .T. ) ;
#74 = CARTESIAN_POINT ( 'NONE',  ( 0.000000000000000000, 0.000000000000000000, 315.0000000000000000 ) ) ;
#75 = APPROVAL_DATE_TIME ( #158, #184 ) ;
#76 = DIRECTION ( 'NONE',  ( -0.000000000000000000, -0.000000000000000000, -1.000000000000000000 ) ) ;
#77 = CARTESIAN_POINT ( 'NONE',  ( 0.000000000000000000, 0.000000000000000000, 0.000000000000000000 ) ) ;
#78 = CC_DESIGN_PERSON_AND_ORGANIZATION_ASSIGNMENT ( #115, #200, ( #58 ) ) ;
#79 = AXIS2_PLACEMENT_3D ( 'NONE', #169, #28, #247 ) ;
#80 = DIRECTION ( 'NONE',  ( 0.000000000000000000, 0.000000000000000000, 1.000000000000000000 ) ) ;
#81 = EDGE_CURVE ( 'NONE', #128, #114, #38, .T. ) ;
#82 = FACE_OUTER_BOUND ( 'NONE', #218, .T. ) ;
#83 = EDGE_CURVE ( 'NONE', #114, #128, #157, .T. ) ;
#84 = SECURITY_CLASSIFICATION_LEVEL ( 'unclassified' ) ;
#85 = EDGE_LOOP ( 'NONE', ( #133, #238 ) ) ;
#86 = APPLICATION_PROTOCOL_DEFINITION ( 'international standard', 'config_control_design', 1994, #221 ) ;
#87 = PERSON_AND_ORGANIZATION ( #210, #230 ) ;
#88 = CARTESIAN_POINT ( 'NONE',  ( -3.100000000000000089, 0.000000000000000000, 315.0000000000000000 ) ) ;
#89 = APPROVAL_DATE_TIME ( #60, #143 ) ;
#90 = CARTESIAN_POINT ( 'NONE',  ( 6.000000000000000888, 7.347880794884120722E-16, 0.000000000000000000 ) ) ;
#91 = LINE ( 'NONE', #61, #65 ) ;
#92 = DIRECTION ( 'NONE',  ( 0.000000000000000000, 0.000000000000000000, 1.000000000000000000 ) ) ;
#93 = CARTESIAN_POINT ( 'NONE',  ( 6.000000000000000888, 7.347880794884120722E-16, 5.000000000000000000 ) ) ;
#94 = DIRECTION ( 'NONE',  ( 0.000000000000000000, 0.000000000000000000, 1.000000000000000000 ) ) ;
#95 = APPROVAL ( #244, 'NEURÈENÝ' ) ;
#96 = ORIENTED_EDGE ( 'NONE', *, *, #73, .T. ) ;
#97 = PERSON_AND_ORGANIZATION_ROLE ( 'classification_officer' ) ;
#98 = CARTESIAN_POINT ( 'NONE',  ( -6.000000000000000888, 0.000000000000000000, 0.000000000000000000 ) ) ;
#99 = DIRECTION ( 'NONE',  ( 1.000000000000000000, 0.000000000000000000, 0.000000000000000000 ) ) ;
#100 = DIRECTION ( 'NONE',  ( 0.000000000000000000, 0.000000000000000000, 1.000000000000000000 ) ) ;
#101 = PERSON_AND_ORGANIZATION_ROLE ( 'creator' ) ;
#102 = CARTESIAN_POINT ( 'NONE',  ( 0.000000000000000000, 0.000000000000000000, 315.0000000000000000 ) ) ;
#103 = DIRECTION ( 'NONE',  ( -0.000000000000000000, -0.000000000000000000, -1.000000000000000000 ) ) ;
#104 = ADVANCED_FACE ( 'NONE', ( #33 ), #202, .T. ) ;
#105 = DIRECTION ( 'NONE',  ( -1.000000000000000000, 0.000000000000000000, 0.000000000000000000 ) ) ;
#106 = CIRCLE ( 'NONE', #255, 3.100000000000000089 ) ;
#107 = DIRECTION ( 'NONE',  ( -0.000000000000000000, -0.000000000000000000, -1.000000000000000000 ) ) ;
#108 = APPLICATION_CONTEXT ( 'configuration controlled 3d designs of mechanical parts and assemblies' ) ;
#109 = ADVANCED_FACE ( 'NONE', ( #203, #125 ), #147, .T. ) ;
#110 = VERTEX_POINT ( 'NONE', #165 ) ;
#111 = CC_DESIGN_PERSON_AND_ORGANIZATION_ASSIGNMENT ( #32, #140, ( #40 ) ) ;
#112 = EDGE_LOOP ( 'NONE', ( #6, #194 ) ) ;
#113 = APPROVAL_STATUS ( 'not_yet_approved' ) ;
#114 = VERTEX_POINT ( 'NONE', #206 ) ;
#115 = PERSON_AND_ORGANIZATION ( #210, #230 ) ;
#116 = ADVANCED_FACE ( 'NONE', ( #30 ), #225, .T. ) ;
#117 = VERTEX_POINT ( 'NONE', #72 ) ;
#118 = APPROVAL_ROLE ( '' ) ;
#119 = DIRECTION ( 'NONE',  ( 0.000000000000000000, 0.000000000000000000, 1.000000000000000000 ) ) ;
#120 = DIRECTION ( 'NONE',  ( 0.000000000000000000, 0.000000000000000000, 1.000000000000000000 ) ) ;
#121 = VECTOR ( 'NONE', #126, 1000.000000000000000 ) ;
#122 = CARTESIAN_POINT ( 'NONE',  ( 0.000000000000000000, 0.000000000000000000, 0.000000000000000000 ) ) ;
#123 = DIRECTION ( 'NONE',  ( 0.000000000000000000, 0.000000000000000000, 1.000000000000000000 ) ) ;
#124 = DATE_TIME_ROLE ( 'classification_date' ) ;
#125 = FACE_OUTER_BOUND ( 'NONE', #85, .T. ) ;
#126 = DIRECTION ( 'NONE',  ( -0.000000000000000000, -0.000000000000000000, -1.000000000000000000 ) ) ;
#127 = APPLICATION_PROTOCOL_DEFINITION ( 'international standard', 'config_control_design', 1994, #108 ) ;
#128 = VERTEX_POINT ( 'NONE', #88 ) ;
#129 = APPROVAL_PERSON_ORGANIZATION ( #185, #184, #29 ) ;
#130 = DIRECTION ( 'NONE',  ( 1.000000000000000000, 0.000000000000000000, 0.000000000000000000 ) ) ;
#131 = CARTESIAN_POINT ( 'NONE',  ( 0.000000000000000000, 0.000000000000000000, 5.000000000000000000 ) ) ;
#132 = CIRCLE ( 'NONE', #249, 6.000000000000000888 ) ;
#133 = ORIENTED_EDGE ( 'NONE', *, *, #220, .T. ) ;
#134 = COORDINATED_UNIVERSAL_TIME_OFFSET ( 1, 0, .AHEAD. ) ;
#135 = EDGE_CURVE ( 'NONE', #8, #48, #216, .T. ) ;
#136 =( GEOMETRIC_REPRESENTATION_CONTEXT ( 3 ) GLOBAL_UNCERTAINTY_ASSIGNED_CONTEXT ( ( #181 ) ) GLOBAL_UNIT_ASSIGNED_CONTEXT ( ( #217, #39, #196 ) ) REPRESENTATION_CONTEXT ( 'NONE', 'WORKASPACE' ) );
#137 = APPROVAL_DATE_TIME ( #142, #95 ) ;
#138 = CYLINDRICAL_SURFACE ( 'NONE', #239, 3.100000000000000089 ) ;
#139 = VECTOR ( 'NONE', #227, 1000.000000000000000 ) ;
#140 = PERSON_AND_ORGANIZATION_ROLE ( 'creator' ) ;
#141 = CARTESIAN_POINT ( 'NONE',  ( 0.000000000000000000, 0.000000000000000000, 315.0000000000000000 ) ) ;
#142 = DATE_AND_TIME ( #71, #36 ) ;
#143 = APPROVAL ( #164, 'NEURÈENÝ' ) ;
#144 = LINE ( 'NONE', #223, #121 ) ;
#145 = DIRECTION ( 'NONE',  ( 1.000000000000000000, 0.000000000000000000, -0.000000000000000000 ) ) ;
#146 = AXIS2_PLACEMENT_3D ( 'NONE', #51, #250, #167 ) ;
#147 = PLANE ( 'NONE',  #22 ) ;
#148 = COORDINATED_UNIVERSAL_TIME_OFFSET ( 1, 0, .AHEAD. ) ;
#149 = DIRECTION ( 'NONE',  ( -1.000000000000000000, 0.000000000000000000, 0.000000000000000000 ) ) ;
#150 = DATE_AND_TIME ( #241, #70 ) ;
#151 = DIRECTION ( 'NONE',  ( 0.000000000000000000, 0.000000000000000000, 1.000000000000000000 ) ) ;
#152 = EDGE_CURVE ( 'NONE', #201, #48, #91, .T. ) ;
#153 = EDGE_CURVE ( 'NONE', #114, #117, #144, .T. ) ;
#154 = ORIENTED_EDGE ( 'NONE', *, *, #237, .F. ) ;
#155 = ORIENTED_EDGE ( 'NONE', *, *, #193, .T. ) ;
#156 = ORIENTED_EDGE ( 'NONE', *, *, #53, .F. ) ;
#157 = CIRCLE ( 'NONE', #173, 3.100000000000000089 ) ;
#158 = DATE_AND_TIME ( #25, #214 ) ;
#159 = PLANE ( 'NONE',  #4 ) ;
#160 = DIRECTION ( 'NONE',  ( 0.000000000000000000, 0.000000000000000000, 1.000000000000000000 ) ) ;
#161 = CC_DESIGN_SECURITY_CLASSIFICATION ( #251, ( #40 ) ) ;
#162 = FACE_OUTER_BOUND ( 'NONE', #66, .T. ) ;
#163 = CARTESIAN_POINT ( 'NONE',  ( 0.000000000000000000, 0.000000000000000000, 315.0000000000000000 ) ) ;
#164 = APPROVAL_STATUS ( 'not_yet_approved' ) ;
#165 = CARTESIAN_POINT ( 'NONE',  ( -6.000000000000000888, 0.000000000000000000, 5.000000000000000000 ) ) ;
#166 = VECTOR ( 'NONE', #182, 1000.000000000000000 ) ;
#167 = DIRECTION ( 'NONE',  ( 1.000000000000000000, 0.000000000000000000, 0.000000000000000000 ) ) ;
#168 = PRODUCT_RELATED_PRODUCT_CATEGORY ( 'detail', '', ( #58 ) ) ;
#169 = CARTESIAN_POINT ( 'NONE',  ( 0.000000000000000000, 0.000000000000000000, 5.000000000000000000 ) ) ;
#170 = CARTESIAN_POINT ( 'NONE',  ( 0.000000000000000000, 0.000000000000000000, 5.000000000000000000 ) ) ;
#171 = CARTESIAN_POINT ( 'NONE',  ( 0.000000000000000000, 0.000000000000000000, 5.000000000000000000 ) ) ;
#172 = LOCAL_TIME ( 12, 32, 32.00000000000000000, #134 ) ;
#173 = AXIS2_PLACEMENT_3D ( 'NONE', #141, #120, #16 ) ;
#174 = ORIENTED_EDGE ( 'NONE', *, *, #83, .F. ) ;
#175 = ORIENTED_EDGE ( 'NONE', *, *, #83, .T. ) ;
#176 = CC_DESIGN_APPROVAL ( #95, ( #69 ) ) ;
#177 = ORIENTED_EDGE ( 'NONE', *, *, #135, .T. ) ;
#178 = COORDINATED_UNIVERSAL_TIME_OFFSET ( 1, 0, .AHEAD. ) ;
#179 = FACE_OUTER_BOUND ( 'NONE', #112, .T. ) ;
#180 = PERSON_AND_ORGANIZATION ( #210, #230 ) ;
#181 = UNCERTAINTY_MEASURE_WITH_UNIT (LENGTH_MEASURE( 1.000000000000000082E-05 ), #217, 'distance_accuracy_value', 'NONE');
#182 = DIRECTION ( 'NONE',  ( -0.000000000000000000, -0.000000000000000000, -1.000000000000000000 ) ) ;
#183 = AXIS2_PLACEMENT_3D ( 'NONE', #170, #63, #43 ) ;
#184 = APPROVAL ( #113, 'NEURÈENÝ' ) ;
#185 = PERSON_AND_ORGANIZATION ( #210, #230 ) ;
#186 = CARTESIAN_POINT ( 'NONE',  ( 0.000000000000000000, 0.000000000000000000, 5.000000000000000000 ) ) ;
#187 = CARTESIAN_POINT ( 'NONE',  ( 0.000000000000000000, 0.000000000000000000, 315.0000000000000000 ) ) ;
#188 = DIRECTION ( 'NONE',  ( 1.000000000000000000, 0.000000000000000000, 0.000000000000000000 ) ) ;
#189 = AXIS2_PLACEMENT_3D ( 'NONE', #233, #94, #211 ) ;
#190 = CLOSED_SHELL ( 'NONE', ( #44, #198, #116, #109, #21, #104, #59 ) ) ;
#191 = DIRECTION ( 'NONE',  ( 1.000000000000000000, 0.000000000000000000, 0.000000000000000000 ) ) ;
#192 = ORIENTED_EDGE ( 'NONE', *, *, #81, .F. ) ;
#193 = EDGE_CURVE ( 'NONE', #128, #68, #207, .T. ) ;
#194 = ORIENTED_EDGE ( 'NONE', *, *, #232, .F. ) ;
#195 = CC_DESIGN_PERSON_AND_ORGANIZATION_ASSIGNMENT ( #180, #101, ( #69 ) ) ;
#196 =( NAMED_UNIT ( * ) SI_UNIT ( $, .STERADIAN. ) SOLID_ANGLE_UNIT ( ) );
#197 = ORIENTED_EDGE ( 'NONE', *, *, #220, .F. ) ;
#198 = ADVANCED_FACE ( 'NONE', ( #82 ), #41, .T. ) ;
#199 = ORIENTED_EDGE ( 'NONE', *, *, #242, .F. ) ;
#200 = PERSON_AND_ORGANIZATION_ROLE ( 'design_owner' ) ;
#201 = VERTEX_POINT ( 'NONE', #93 ) ;
#202 = CYLINDRICAL_SURFACE ( 'NONE', #42, 3.100000000000000089 ) ;
#203 = FACE_BOUND ( 'NONE', #47, .T. ) ;
#204 = COORDINATED_UNIVERSAL_TIME_OFFSET ( 1, 0, .AHEAD. ) ;
#205 = DIRECTION ( 'NONE',  ( 1.000000000000000000, 0.000000000000000000, 0.000000000000000000 ) ) ;
#206 = CARTESIAN_POINT ( 'NONE',  ( 3.100000000000000089, 3.796405077356794918E-16, 315.0000000000000000 ) ) ;
#207 = LINE ( 'NONE', #37, #166 ) ;
#208 = LOCAL_TIME ( 12, 32, 32.00000000000000000, #148 ) ;
#209 = SHAPE_DEFINITION_REPRESENTATION ( #15, #253 ) ;
#210 = PERSON ( 'NEURÈENÝ', 'NEURÈENÝ', 'NEURÈENÝ', ('NEURÈENÝ'), ('NEURÈENÝ'), ('NEURÈENÝ') ) ;
#211 = DIRECTION ( 'NONE',  ( 1.000000000000000000, 0.000000000000000000, 0.000000000000000000 ) ) ;
#212 = MANIFOLD_SOLID_BREP ( 'Pøidat vysunutím3', #190 ) ;
#213 = ORIENTED_EDGE ( 'NONE', *, *, #81, .T. ) ;
#214 = LOCAL_TIME ( 12, 32, 32.00000000000000000, #204 ) ;
#215 = CC_DESIGN_DATE_AND_TIME_ASSIGNMENT ( #150, #124, ( #251 ) ) ;
#216 = CIRCLE ( 'NONE', #12, 6.000000000000000888 ) ;
#217 =( LENGTH_UNIT ( ) NAMED_UNIT ( * ) SI_UNIT ( .MILLI., .METRE. ) );
#218 = EDGE_LOOP ( 'NONE', ( #199, #67, #62, #23 ) ) ;
#219 = ORIENTED_EDGE ( 'NONE', *, *, #153, .T. ) ;
#220 = EDGE_CURVE ( 'NONE', #110, #201, #132, .T. ) ;
#221 = APPLICATION_CONTEXT ( 'configuration controlled 3d designs of mechanical parts and assemblies' ) ;
#222 = ORIENTED_EDGE ( 'NONE', *, *, #53, .T. ) ;
#223 = CARTESIAN_POINT ( 'NONE',  ( 3.100000000000000089, 3.796405077356794918E-16, 315.0000000000000000 ) ) ;
#224 = PERSON_AND_ORGANIZATION ( #210, #230 ) ;
#225 = CYLINDRICAL_SURFACE ( 'NONE', #79, 6.000000000000000888 ) ;
#226 = CIRCLE ( 'NONE', #183, 6.000000000000000888 ) ;
#227 = DIRECTION ( 'NONE',  ( -0.000000000000000000, -0.000000000000000000, -1.000000000000000000 ) ) ;
#228 = LINE ( 'NONE', #54, #139 ) ;
#229 = APPROVAL_ROLE ( '' ) ;
#230 = ORGANIZATION ( 'NEURÈENÝ', 'NEURÈENÝ', '' ) ;
#231 = CALENDAR_DATE ( 2023, 12, 2 ) ;
#232 = EDGE_CURVE ( 'NONE', #48, #8, #49, .T. ) ;
#233 = CARTESIAN_POINT ( 'NONE',  ( 0.000000000000000000, 0.000000000000000000, 0.000000000000000000 ) ) ;
#234 = AXIS2_PLACEMENT_3D ( 'NONE', #102, #123, #205 ) ;
#235 = CARTESIAN_POINT ( 'NONE',  ( 0.000000000000000000, 0.000000000000000000, 5.000000000000000000 ) ) ;
#236 = EDGE_LOOP ( 'NONE', ( #213, #175 ) ) ;
#237 = EDGE_CURVE ( 'NONE', #117, #68, #106, .T. ) ;
#238 = ORIENTED_EDGE ( 'NONE', *, *, #242, .T. ) ;
#239 = AXIS2_PLACEMENT_3D ( 'NONE', #163, #107, #56 ) ;
#240 = EDGE_LOOP ( 'NONE', ( #45, #192, #155, #222 ) ) ;
#241 = CALENDAR_DATE ( 2023, 12, 2 ) ;
#242 = EDGE_CURVE ( 'NONE', #201, #110, #226, .T. ) ;
#243 = ORIENTED_EDGE ( 'NONE', *, *, #237, .T. ) ;
#244 = APPROVAL_STATUS ( 'not_yet_approved' ) ;
#245 = PLANE ( 'NONE',  #18 ) ;
#246 = CALENDAR_DATE ( 2023, 12, 2 ) ;
#247 = DIRECTION ( 'NONE',  ( -1.000000000000000000, 0.000000000000000000, 0.000000000000000000 ) ) ;
#248 = FACE_OUTER_BOUND ( 'NONE', #236, .T. ) ;
#249 = AXIS2_PLACEMENT_3D ( 'NONE', #171, #17, #130 ) ;
#250 = DIRECTION ( 'NONE',  ( 0.000000000000000000, 0.000000000000000000, 1.000000000000000000 ) ) ;
#251 = SECURITY_CLASSIFICATION ( '', '', #84 ) ;
#252 = DESIGN_CONTEXT ( 'detailed design', #221, 'design' ) ;
#253 = ADVANCED_BREP_SHAPE_REPRESENTATION ( '0a75', ( #212, #10 ), #136 ) ;
#254 = DIRECTION ( 'NONE',  ( -0.000000000000000000, -0.000000000000000000, -1.000000000000000000 ) ) ;
#255 = AXIS2_PLACEMENT_3D ( 'NONE', #131, #151, #191 ) ;
ENDSEC;
END-ISO-10303-21;
