ISO-10303-21;
HEADER;
FILE_DESCRIPTION (( 'STEP AP203' ),
    '1' );
FILE_NAME ('53ea.STEP',
    '2023-02-12T12:24:01',
    ( '' ),
    ( '' ),
    'SwSTEP 2.0',
    'SolidWorks 2019',
    '' );
FILE_SCHEMA (( 'CONFIG_CONTROL_DESIGN' ));
ENDSEC;

DATA;
#1 = PLANE ( 'NONE',  #52 ) ;
#2 = ADVANCED_FACE ( 'NONE', ( #67 ), #4, .T. ) ;
#3 = APPROVAL_PERSON_ORGANIZATION ( #109, #7, #245 ) ;
#4 = CYLINDRICAL_SURFACE ( 'NONE', #157, 1.000000000000000000 ) ;
#5 = DIRECTION ( 'NONE',  ( 1.000000000000000000, 0.000000000000000000, 0.000000000000000000 ) ) ;
#6 = DIRECTION ( 'NONE',  ( 1.000000000000000000, 0.000000000000000000, 0.000000000000000000 ) ) ;
#7 = APPROVAL ( #12, 'NEURÈENÝ' ) ;
#8 = APPROVAL_DATE_TIME ( #51, #78 ) ;
#9 = DIRECTION ( 'NONE',  ( -0.000000000000000000, -0.000000000000000000, -1.000000000000000000 ) ) ;
#10 = COORDINATED_UNIVERSAL_TIME_OFFSET ( 1, 0, .AHEAD. ) ;
#11 = DIRECTION ( 'NONE',  ( 1.000000000000000000, 0.000000000000000000, 0.000000000000000000 ) ) ;
#12 = APPROVAL_STATUS ( 'not_yet_approved' ) ;
#13 = FACE_OUTER_BOUND ( 'NONE', #201, .T. ) ;
#14 = EDGE_CURVE ( 'NONE', #76, #162, #123, .T. ) ;
#15 = DESIGN_CONTEXT ( 'detailed design', #155, 'design' ) ;
#16 = VERTEX_POINT ( 'NONE', #86 ) ;
#17 = COORDINATED_UNIVERSAL_TIME_OFFSET ( 1, 0, .AHEAD. ) ;
#18 = ADVANCED_BREP_SHAPE_REPRESENTATION ( '53ea', ( #186, #216 ), #66 ) ;
#19 = VERTEX_POINT ( 'NONE', #182 ) ;
#20 = AXIS2_PLACEMENT_3D ( 'NONE', #241, #143, #6 ) ;
#21 = ORIENTED_EDGE ( 'NONE', *, *, #198, .T. ) ;
#22 = CC_DESIGN_PERSON_AND_ORGANIZATION_ASSIGNMENT ( #188, #73, ( #90 ) ) ;
#23 = ORIENTED_EDGE ( 'NONE', *, *, #14, .T. ) ;
#24 = FACE_OUTER_BOUND ( 'NONE', #238, .T. ) ;
#25 = FACE_OUTER_BOUND ( 'NONE', #221, .T. ) ;
#26 = ORIENTED_EDGE ( 'NONE', *, *, #153, .F. ) ;
#27 = ORIENTED_EDGE ( 'NONE', *, *, #62, .T. ) ;
#28 = LOCAL_TIME ( 13, 24, 1.000000000000000000, #59 ) ;
#29 = CYLINDRICAL_SURFACE ( 'NONE', #158, 1.000000000000000000 ) ;
#30 = ADVANCED_FACE ( 'NONE', ( #104 ), #141, .T. ) ;
#31 = DIRECTION ( 'NONE',  ( 0.000000000000000000, 0.000000000000000000, 1.000000000000000000 ) ) ;
#32 = CALENDAR_DATE ( 2023, 12, 2 ) ;
#33 =( NAMED_UNIT ( * ) SI_UNIT ( $, .STERADIAN. ) SOLID_ANGLE_UNIT ( ) );
#34 = DATE_AND_TIME ( #229, #197 ) ;
#35 = CIRCLE ( 'NONE', #42, 2.000000000000000000 ) ;
#36 = DIRECTION ( 'NONE',  ( -0.000000000000000000, -0.000000000000000000, -1.000000000000000000 ) ) ;
#37 = EDGE_CURVE ( 'NONE', #16, #142, #203, .T. ) ;
#38 = APPROVAL_ROLE ( '' ) ;
#39 = APPROVAL_PERSON_ORGANIZATION ( #96, #78, #38 ) ;
#40 = AXIS2_PLACEMENT_3D ( 'NONE', #68, #223, #63 ) ;
#41 = ORIENTED_EDGE ( 'NONE', *, *, #62, .F. ) ;
#42 = AXIS2_PLACEMENT_3D ( 'NONE', #209, #224, #228 ) ;
#43 = EDGE_LOOP ( 'NONE', ( #79, #236, #45, #215 ) ) ;
#44 = ORIENTED_EDGE ( 'NONE', *, *, #200, .T. ) ;
#45 = ORIENTED_EDGE ( 'NONE', *, *, #116, .T. ) ;
#46 = ORIENTED_EDGE ( 'NONE', *, *, #200, .F. ) ;
#47 = PLANE ( 'NONE',  #71 ) ;
#48 = CARTESIAN_POINT ( 'NONE',  ( 2.000000000000000000, 2.449293598294706414E-16, 2.000000000000000000 ) ) ;
#49 = LINE ( 'NONE', #165, #251 ) ;
#50 = APPLICATION_CONTEXT ( 'configuration controlled 3d designs of mechanical parts and assemblies' ) ;
#51 = DATE_AND_TIME ( #111, #80 ) ;
#52 = AXIS2_PLACEMENT_3D ( 'NONE', #156, #85, #137 ) ;
#53 = DIRECTION ( 'NONE',  ( 0.000000000000000000, 0.000000000000000000, 1.000000000000000000 ) ) ;
#54 = APPROVAL_DATE_TIME ( #214, #7 ) ;
#55 = DIRECTION ( 'NONE',  ( 1.000000000000000000, 0.000000000000000000, -0.000000000000000000 ) ) ;
#56 = SECURITY_CLASSIFICATION ( '', '', #207 ) ;
#57 = PERSON_AND_ORGANIZATION_ROLE ( 'classification_officer' ) ;
#58 = MECHANICAL_CONTEXT ( 'NONE', #50, 'mechanical' ) ;
#59 = COORDINATED_UNIVERSAL_TIME_OFFSET ( 1, 0, .AHEAD. ) ;
#60 = ADVANCED_FACE ( 'NONE', ( #24 ), #1, .T. ) ;
#61 = CIRCLE ( 'NONE', #120, 2.000000000000000000 ) ;
#62 = EDGE_CURVE ( 'NONE', #183, #97, #103, .T. ) ;
#63 = DIRECTION ( 'NONE',  ( -1.000000000000000000, 0.000000000000000000, 0.000000000000000000 ) ) ;
#64 = DIRECTION ( 'NONE',  ( 0.000000000000000000, 0.000000000000000000, 1.000000000000000000 ) ) ;
#65 = ORIENTED_EDGE ( 'NONE', *, *, #14, .F. ) ;
#66 =( GEOMETRIC_REPRESENTATION_CONTEXT ( 3 ) GLOBAL_UNCERTAINTY_ASSIGNED_CONTEXT ( ( #77 ) ) GLOBAL_UNIT_ASSIGNED_CONTEXT ( ( #128, #69, #33 ) ) REPRESENTATION_CONTEXT ( 'NONE', 'WORKASPACE' ) );
#67 = FACE_OUTER_BOUND ( 'NONE', #180, .T. ) ;
#68 = CARTESIAN_POINT ( 'NONE',  ( 0.000000000000000000, 0.000000000000000000, 2.000000000000000000 ) ) ;
#69 =( NAMED_UNIT ( * ) PLANE_ANGLE_UNIT ( ) SI_UNIT ( $, .RADIAN. ) );
#70 = CARTESIAN_POINT ( 'NONE',  ( 1.000000000000000000, 1.224646799147353207E-16, 100.0000000000000000 ) ) ;
#71 = AXIS2_PLACEMENT_3D ( 'NONE', #202, #253, #102 ) ;
#72 = DIRECTION ( 'NONE',  ( 0.000000000000000000, 0.000000000000000000, 1.000000000000000000 ) ) ;
#73 = PERSON_AND_ORGANIZATION_ROLE ( 'creator' ) ;
#74 = CYLINDRICAL_SURFACE ( 'NONE', #145, 2.000000000000000000 ) ;
#75 = APPROVAL_ROLE ( '' ) ;
#76 = VERTEX_POINT ( 'NONE', #218 ) ;
#77 = UNCERTAINTY_MEASURE_WITH_UNIT (LENGTH_MEASURE( 1.000000000000000082E-05 ), #128, 'distance_accuracy_value', 'NONE');
#78 = APPROVAL ( #248, 'NEURÈENÝ' ) ;
#79 = ORIENTED_EDGE ( 'NONE', *, *, #166, .F. ) ;
#80 = LOCAL_TIME ( 13, 24, 1.000000000000000000, #130 ) ;
#81 = DIRECTION ( 'NONE',  ( 1.000000000000000000, 0.000000000000000000, 0.000000000000000000 ) ) ;
#82 = ADVANCED_FACE ( 'NONE', ( #117, #25 ), #47, .T. ) ;
#83 = AXIS2_PLACEMENT_3D ( 'NONE', #129, #53, #55 ) ;
#84 = ORIENTED_EDGE ( 'NONE', *, *, #153, .T. ) ;
#85 = DIRECTION ( 'NONE',  ( 0.000000000000000000, 0.000000000000000000, 1.000000000000000000 ) ) ;
#86 = CARTESIAN_POINT ( 'NONE',  ( 2.000000000000000000, 2.449293598294706414E-16, 2.000000000000000000 ) ) ;
#87 = CARTESIAN_POINT ( 'NONE',  ( 0.000000000000000000, 0.000000000000000000, 2.000000000000000000 ) ) ;
#88 = PERSON_AND_ORGANIZATION_ROLE ( 'design_supplier' ) ;
#89 = DIRECTION ( 'NONE',  ( -0.000000000000000000, -0.000000000000000000, -1.000000000000000000 ) ) ;
#90 = PRODUCT_DEFINITION ( 'NEZNÁMÝ', '', #136, #15 ) ;
#91 = VECTOR ( 'NONE', #36, 1000.000000000000000 ) ;
#92 = FACE_OUTER_BOUND ( 'NONE', #220, .T. ) ;
#93 = CARTESIAN_POINT ( 'NONE',  ( 0.000000000000000000, 0.000000000000000000, 2.000000000000000000 ) ) ;
#94 = DATE_AND_TIME ( #32, #247 ) ;
#95 = EDGE_LOOP ( 'NONE', ( #100, #98, #21, #234 ) ) ;
#96 = PERSON_AND_ORGANIZATION ( #167, #211 ) ;
#97 = VERTEX_POINT ( 'NONE', #181 ) ;
#98 = ORIENTED_EDGE ( 'NONE', *, *, #127, .F. ) ;
#99 = CC_DESIGN_PERSON_AND_ORGANIZATION_ASSIGNMENT ( #112, #195, ( #249 ) ) ;
#100 = ORIENTED_EDGE ( 'NONE', *, *, #37, .F. ) ;
#101 = CC_DESIGN_APPROVAL ( #140, ( #90 ) ) ;
#102 = DIRECTION ( 'NONE',  ( 1.000000000000000000, 0.000000000000000000, -0.000000000000000000 ) ) ;
#103 = CIRCLE ( 'NONE', #243, 1.000000000000000000 ) ;
#104 = FACE_OUTER_BOUND ( 'NONE', #43, .T. ) ;
#105 = ORIENTED_EDGE ( 'NONE', *, *, #166, .T. ) ;
#106 = LOCAL_TIME ( 13, 24, 1.000000000000000000, #17 ) ;
#107 = CLOSED_SHELL ( 'NONE', ( #122, #30, #210, #82, #133, #2, #60 ) ) ;
#108 = CARTESIAN_POINT ( 'NONE',  ( -2.000000000000000000, 0.000000000000000000, 2.000000000000000000 ) ) ;
#109 = PERSON_AND_ORGANIZATION ( #167, #211 ) ;
#110 = DIRECTION ( 'NONE',  ( 0.000000000000000000, 0.000000000000000000, 1.000000000000000000 ) ) ;
#111 = CALENDAR_DATE ( 2023, 12, 2 ) ;
#112 = PERSON_AND_ORGANIZATION ( #167, #211 ) ;
#113 = CC_DESIGN_PERSON_AND_ORGANIZATION_ASSIGNMENT ( #126, #149, ( #136 ) ) ;
#114 = CC_DESIGN_APPROVAL ( #78, ( #136 ) ) ;
#115 = ORIENTED_EDGE ( 'NONE', *, *, #191, .F. ) ;
#116 = EDGE_CURVE ( 'NONE', #142, #19, #226, .T. ) ;
#117 = FACE_BOUND ( 'NONE', #217, .T. ) ;
#118 = VERTEX_POINT ( 'NONE', #108 ) ;
#119 = DIRECTION ( 'NONE',  ( -1.000000000000000000, 0.000000000000000000, 0.000000000000000000 ) ) ;
#120 = AXIS2_PLACEMENT_3D ( 'NONE', #93, #31, #5 ) ;
#121 = CARTESIAN_POINT ( 'NONE',  ( 0.000000000000000000, 0.000000000000000000, 100.0000000000000000 ) ) ;
#122 = ADVANCED_FACE ( 'NONE', ( #13 ), #29, .T. ) ;
#123 = CIRCLE ( 'NONE', #147, 1.000000000000000000 ) ;
#124 = DIRECTION ( 'NONE',  ( -1.000000000000000000, 0.000000000000000000, 0.000000000000000000 ) ) ;
#125 = AXIS2_PLACEMENT_3D ( 'NONE', #87, #110, #225 ) ;
#126 = PERSON_AND_ORGANIZATION ( #167, #211 ) ;
#127 = EDGE_CURVE ( 'NONE', #118, #16, #61, .T. ) ;
#128 =( LENGTH_UNIT ( ) NAMED_UNIT ( * ) SI_UNIT ( .MILLI., .METRE. ) );
#129 = CARTESIAN_POINT ( 'NONE',  ( 0.000000000000000000, 0.000000000000000000, 0.000000000000000000 ) ) ;
#130 = COORDINATED_UNIVERSAL_TIME_OFFSET ( 1, 0, .AHEAD. ) ;
#131 = CC_DESIGN_APPROVAL ( #7, ( #56 ) ) ;
#132 = PRODUCT_DEFINITION_SHAPE ( 'NONE', 'NONE',  #90 ) ;
#133 = ADVANCED_FACE ( 'NONE', ( #92 ), #206, .F. ) ;
#134 = AXIS2_PLACEMENT_3D ( 'NONE', #255, #237, #11 ) ;
#135 = ORIENTED_EDGE ( 'NONE', *, *, #127, .T. ) ;
#136 = PRODUCT_DEFINITION_FORMATION_WITH_SPECIFIED_SOURCE ( 'LIBOVOLNÝ', '', #249, .NOT_KNOWN. ) ;
#137 = DIRECTION ( 'NONE',  ( 1.000000000000000000, 0.000000000000000000, -0.000000000000000000 ) ) ;
#138 = ORIENTED_EDGE ( 'NONE', *, *, #161, .T. ) ;
#139 = CARTESIAN_POINT ( 'NONE',  ( 0.000000000000000000, 0.000000000000000000, 2.000000000000000000 ) ) ;
#140 = APPROVAL ( #189, 'NEURÈENÝ' ) ;
#141 = CYLINDRICAL_SURFACE ( 'NONE', #40, 2.000000000000000000 ) ;
#142 = VERTEX_POINT ( 'NONE', #168 ) ;
#143 = DIRECTION ( 'NONE',  ( 0.000000000000000000, 0.000000000000000000, 1.000000000000000000 ) ) ;
#144 = EDGE_CURVE ( 'NONE', #162, #183, #173, .T. ) ;
#145 = AXIS2_PLACEMENT_3D ( 'NONE', #242, #148, #212 ) ;
#146 = LINE ( 'NONE', #170, #163 ) ;
#147 = AXIS2_PLACEMENT_3D ( 'NONE', #205, #64, #204 ) ;
#148 = DIRECTION ( 'NONE',  ( -0.000000000000000000, -0.000000000000000000, -1.000000000000000000 ) ) ;
#149 = PERSON_AND_ORGANIZATION_ROLE ( 'creator' ) ;
#150 = AXIS2_PLACEMENT_3D ( 'NONE', #187, #72, #240 ) ;
#151 = DIRECTION ( 'NONE',  ( -0.000000000000000000, -0.000000000000000000, -1.000000000000000000 ) ) ;
#152 = APPROVAL_DATE_TIME ( #231, #140 ) ;
#153 = EDGE_CURVE ( 'NONE', #97, #183, #232, .T. ) ;
#154 = ORIENTED_EDGE ( 'NONE', *, *, #116, .F. ) ;
#155 = APPLICATION_CONTEXT ( 'configuration controlled 3d designs of mechanical parts and assemblies' ) ;
#156 = CARTESIAN_POINT ( 'NONE',  ( 0.000000000000000000, 0.000000000000000000, 100.0000000000000000 ) ) ;
#157 = AXIS2_PLACEMENT_3D ( 'NONE', #121, #159, #119 ) ;
#158 = AXIS2_PLACEMENT_3D ( 'NONE', #193, #89, #124 ) ;
#159 = DIRECTION ( 'NONE',  ( -0.000000000000000000, -0.000000000000000000, -1.000000000000000000 ) ) ;
#160 = ORIENTED_EDGE ( 'NONE', *, *, #144, .F. ) ;
#161 = EDGE_CURVE ( 'NONE', #162, #76, #254, .T. ) ;
#162 = VERTEX_POINT ( 'NONE', #70 ) ;
#163 = VECTOR ( 'NONE', #151, 1000.000000000000000 ) ;
#164 = ORIENTED_EDGE ( 'NONE', *, *, #144, .T. ) ;
#165 = CARTESIAN_POINT ( 'NONE',  ( -1.000000000000000000, 0.000000000000000000, 100.0000000000000000 ) ) ;
#166 = EDGE_CURVE ( 'NONE', #16, #118, #177, .T. ) ;
#167 = PERSON ( 'NEURÈENÝ', 'NEURÈENÝ', 'NEURÈENÝ', ('NEURÈENÝ'), ('NEURÈENÝ'), ('NEURÈENÝ') ) ;
#168 = CARTESIAN_POINT ( 'NONE',  ( 2.000000000000000000, 2.449293598294706414E-16, 0.000000000000000000 ) ) ;
#169 = CALENDAR_DATE ( 2023, 12, 2 ) ;
#170 = CARTESIAN_POINT ( 'NONE',  ( -2.000000000000000000, 0.000000000000000000, 2.000000000000000000 ) ) ;
#171 = CARTESIAN_POINT ( 'NONE',  ( 1.000000000000000000, 1.224646799147353207E-16, 100.0000000000000000 ) ) ;
#172 = APPLICATION_PROTOCOL_DEFINITION ( 'international standard', 'config_control_design', 1994, #155 ) ;
#173 = LINE ( 'NONE', #171, #91 ) ;
#174 = DATE_TIME_ROLE ( 'creation_date' ) ;
#175 = CC_DESIGN_SECURITY_CLASSIFICATION ( #56, ( #136 ) ) ;
#176 = CALENDAR_DATE ( 2023, 12, 2 ) ;
#177 = CIRCLE ( 'NONE', #150, 2.000000000000000000 ) ;
#178 = ORIENTED_EDGE ( 'NONE', *, *, #161, .F. ) ;
#179 = APPROVAL_PERSON_ORGANIZATION ( #250, #140, #75 ) ;
#180 = EDGE_LOOP ( 'NONE', ( #160, #65, #44, #84 ) ) ;
#181 = CARTESIAN_POINT ( 'NONE',  ( -1.000000000000000000, 0.000000000000000000, 2.000000000000000000 ) ) ;
#182 = CARTESIAN_POINT ( 'NONE',  ( -2.000000000000000000, 0.000000000000000000, 0.000000000000000000 ) ) ;
#183 = VERTEX_POINT ( 'NONE', #246 ) ;
#184 = CC_DESIGN_DATE_AND_TIME_ASSIGNMENT ( #94, #174, ( #90 ) ) ;
#185 = DIRECTION ( 'NONE',  ( 0.000000000000000000, 0.000000000000000000, 1.000000000000000000 ) ) ;
#186 = MANIFOLD_SOLID_BREP ( 'Pøidat vysunutím3', #107 ) ;
#187 = CARTESIAN_POINT ( 'NONE',  ( 0.000000000000000000, 0.000000000000000000, 2.000000000000000000 ) ) ;
#188 = PERSON_AND_ORGANIZATION ( #167, #211 ) ;
#189 = APPROVAL_STATUS ( 'not_yet_approved' ) ;
#190 = CARTESIAN_POINT ( 'NONE',  ( 0.000000000000000000, 0.000000000000000000, 0.000000000000000000 ) ) ;
#191 = EDGE_CURVE ( 'NONE', #19, #142, #35, .T. ) ;
#192 = COORDINATED_UNIVERSAL_TIME_OFFSET ( 1, 0, .AHEAD. ) ;
#193 = CARTESIAN_POINT ( 'NONE',  ( 0.000000000000000000, 0.000000000000000000, 100.0000000000000000 ) ) ;
#194 = SHAPE_DEFINITION_REPRESENTATION ( #132, #18 ) ;
#195 = PERSON_AND_ORGANIZATION_ROLE ( 'design_owner' ) ;
#196 = PERSON_AND_ORGANIZATION ( #167, #211 ) ;
#197 = LOCAL_TIME ( 13, 24, 1.000000000000000000, #10 ) ;
#198 = EDGE_CURVE ( 'NONE', #118, #19, #146, .T. ) ;
#199 = VECTOR ( 'NONE', #252, 1000.000000000000000 ) ;
#200 = EDGE_CURVE ( 'NONE', #76, #97, #49, .T. ) ;
#201 = EDGE_LOOP ( 'NONE', ( #178, #164, #27, #46 ) ) ;
#202 = CARTESIAN_POINT ( 'NONE',  ( 0.000000000000000000, 0.000000000000000000, 2.000000000000000000 ) ) ;
#203 = LINE ( 'NONE', #48, #199 ) ;
#204 = DIRECTION ( 'NONE',  ( 1.000000000000000000, 0.000000000000000000, 0.000000000000000000 ) ) ;
#205 = CARTESIAN_POINT ( 'NONE',  ( 0.000000000000000000, 0.000000000000000000, 100.0000000000000000 ) ) ;
#206 = PLANE ( 'NONE',  #83 ) ;
#207 = SECURITY_CLASSIFICATION_LEVEL ( 'unclassified' ) ;
#208 = PERSON_AND_ORGANIZATION ( #167, #211 ) ;
#209 = CARTESIAN_POINT ( 'NONE',  ( 0.000000000000000000, 0.000000000000000000, 0.000000000000000000 ) ) ;
#210 = ADVANCED_FACE ( 'NONE', ( #244 ), #74, .T. ) ;
#211 = ORGANIZATION ( 'NEURÈENÝ', 'NEURÈENÝ', '' ) ;
#212 = DIRECTION ( 'NONE',  ( -1.000000000000000000, 0.000000000000000000, 0.000000000000000000 ) ) ;
#213 = DIRECTION ( 'NONE',  ( 1.000000000000000000, 0.000000000000000000, 0.000000000000000000 ) ) ;
#214 = DATE_AND_TIME ( #169, #28 ) ;
#215 = ORIENTED_EDGE ( 'NONE', *, *, #198, .F. ) ;
#216 = AXIS2_PLACEMENT_3D ( 'NONE', #190, #185, #213 ) ;
#217 = EDGE_LOOP ( 'NONE', ( #26, #41 ) ) ;
#218 = CARTESIAN_POINT ( 'NONE',  ( -1.000000000000000000, 0.000000000000000000, 100.0000000000000000 ) ) ;
#219 = PRODUCT_RELATED_PRODUCT_CATEGORY ( 'detail', '', ( #249 ) ) ;
#220 = EDGE_LOOP ( 'NONE', ( #115, #154 ) ) ;
#221 = EDGE_LOOP ( 'NONE', ( #135, #105 ) ) ;
#222 = DIRECTION ( 'NONE',  ( 0.000000000000000000, 0.000000000000000000, 1.000000000000000000 ) ) ;
#223 = DIRECTION ( 'NONE',  ( -0.000000000000000000, -0.000000000000000000, -1.000000000000000000 ) ) ;
#224 = DIRECTION ( 'NONE',  ( 0.000000000000000000, 0.000000000000000000, 1.000000000000000000 ) ) ;
#225 = DIRECTION ( 'NONE',  ( 1.000000000000000000, 0.000000000000000000, 0.000000000000000000 ) ) ;
#226 = CIRCLE ( 'NONE', #134, 2.000000000000000000 ) ;
#227 = DATE_TIME_ROLE ( 'classification_date' ) ;
#228 = DIRECTION ( 'NONE',  ( 1.000000000000000000, 0.000000000000000000, 0.000000000000000000 ) ) ;
#229 = CALENDAR_DATE ( 2023, 12, 2 ) ;
#230 = APPLICATION_PROTOCOL_DEFINITION ( 'international standard', 'config_control_design', 1994, #50 ) ;
#231 = DATE_AND_TIME ( #176, #106 ) ;
#232 = CIRCLE ( 'NONE', #125, 1.000000000000000000 ) ;
#233 = CC_DESIGN_PERSON_AND_ORGANIZATION_ASSIGNMENT ( #196, #88, ( #136 ) ) ;
#234 = ORIENTED_EDGE ( 'NONE', *, *, #191, .T. ) ;
#235 = CC_DESIGN_DATE_AND_TIME_ASSIGNMENT ( #34, #227, ( #56 ) ) ;
#236 = ORIENTED_EDGE ( 'NONE', *, *, #37, .T. ) ;
#237 = DIRECTION ( 'NONE',  ( 0.000000000000000000, 0.000000000000000000, 1.000000000000000000 ) ) ;
#238 = EDGE_LOOP ( 'NONE', ( #23, #138 ) ) ;
#239 = CC_DESIGN_PERSON_AND_ORGANIZATION_ASSIGNMENT ( #208, #57, ( #56 ) ) ;
#240 = DIRECTION ( 'NONE',  ( 1.000000000000000000, 0.000000000000000000, 0.000000000000000000 ) ) ;
#241 = CARTESIAN_POINT ( 'NONE',  ( 0.000000000000000000, 0.000000000000000000, 100.0000000000000000 ) ) ;
#242 = CARTESIAN_POINT ( 'NONE',  ( 0.000000000000000000, 0.000000000000000000, 2.000000000000000000 ) ) ;
#243 = AXIS2_PLACEMENT_3D ( 'NONE', #139, #222, #81 ) ;
#244 = FACE_OUTER_BOUND ( 'NONE', #95, .T. ) ;
#245 = APPROVAL_ROLE ( '' ) ;
#246 = CARTESIAN_POINT ( 'NONE',  ( 1.000000000000000000, 1.224646799147353207E-16, 2.000000000000000000 ) ) ;
#247 = LOCAL_TIME ( 13, 24, 1.000000000000000000, #192 ) ;
#248 = APPROVAL_STATUS ( 'not_yet_approved' ) ;
#249 = PRODUCT ( '53ea', '53ea', '', ( #58 ) ) ;
#250 = PERSON_AND_ORGANIZATION ( #167, #211 ) ;
#251 = VECTOR ( 'NONE', #9, 1000.000000000000000 ) ;
#252 = DIRECTION ( 'NONE',  ( -0.000000000000000000, -0.000000000000000000, -1.000000000000000000 ) ) ;
#253 = DIRECTION ( 'NONE',  ( 0.000000000000000000, 0.000000000000000000, 1.000000000000000000 ) ) ;
#254 = CIRCLE ( 'NONE', #20, 1.000000000000000000 ) ;
#255 = CARTESIAN_POINT ( 'NONE',  ( 0.000000000000000000, 0.000000000000000000, 0.000000000000000000 ) ) ;
ENDSEC;
END-ISO-10303-21;
