ISO-10303-21;
HEADER;
FILE_DESCRIPTION (( 'STEP AP203' ),
    '1' );
FILE_NAME ('991d.STEP',
    '2022-07-07T12:43:02',
    ( '' ),
    ( '' ),
    'SwSTEP 2.0',
    'SolidWorks 2019',
    '' );
FILE_SCHEMA (( 'CONFIG_CONTROL_DESIGN' ));
ENDSEC;

DATA;
#1 = ORIENTED_EDGE ( 'NONE', *, *, #72, .F. ) ;
#2 = DIRECTION ( 'NONE',  ( 1.000000000000000000, 0.000000000000000000, 0.000000000000000000 ) ) ;
#3 = ORIENTED_EDGE ( 'NONE', *, *, #58, .T. ) ;
#4 = CARTESIAN_POINT ( 'NONE',  ( 0.000000000000000000, 0.000000000000000000, 503.0000000000000000 ) ) ;
#5 = APPROVAL ( #57, 'NEURÈENÝ' ) ;
#6 = LINE ( 'NONE', #101, #275 ) ;
#7 = ORIENTED_EDGE ( 'NONE', *, *, #145, .T. ) ;
#8 = SECURITY_CLASSIFICATION ( '', '', #253 ) ;
#9 = ORIENTED_EDGE ( 'NONE', *, *, #188, .F. ) ;
#10 = ADVANCED_FACE ( 'NONE', ( #242 ), #146, .T. ) ;
#11 = LOCAL_TIME ( 14, 43, 2.000000000000000000, #160 ) ;
#12 = APPROVAL ( #14, 'NEURÈENÝ' ) ;
#13 = PRODUCT_DEFINITION_FORMATION_WITH_SPECIFIED_SOURCE ( 'LIBOVOLNÝ', '', #142, .NOT_KNOWN. ) ;
#14 = APPROVAL_STATUS ( 'not_yet_approved' ) ;
#15 = FACE_OUTER_BOUND ( 'NONE', #25, .T. ) ;
#16 = ADVANCED_FACE ( 'NONE', ( #198 ), #31, .T. ) ;
#17 = DIRECTION ( 'NONE',  ( 0.000000000000000000, 0.000000000000000000, 1.000000000000000000 ) ) ;
#18 = COORDINATED_UNIVERSAL_TIME_OFFSET ( 1, 0, .AHEAD. ) ;
#19 = ADVANCED_BREP_SHAPE_REPRESENTATION ( '991d', ( #88, #240 ), #33 ) ;
#20 = AXIS2_PLACEMENT_3D ( 'NONE', #279, #167, #243 ) ;
#21 = CARTESIAN_POINT ( 'NONE',  ( 5.000000000000000000, 6.123233995736766282E-16, 3.000000000000000000 ) ) ;
#22 = CALENDAR_DATE ( 2022, 7, 7 ) ;
#23 = EDGE_CURVE ( 'NONE', #26, #127, #294, .T. ) ;
#24 = DIRECTION ( 'NONE',  ( -0.000000000000000000, -0.000000000000000000, -1.000000000000000000 ) ) ;
#25 = EDGE_LOOP ( 'NONE', ( #226, #99, #269, #221 ) ) ;
#26 = VERTEX_POINT ( 'NONE', #263 ) ;
#27 = ORIENTED_EDGE ( 'NONE', *, *, #117, .T. ) ;
#28 = DIRECTION ( 'NONE',  ( 1.000000000000000000, 0.000000000000000000, 0.000000000000000000 ) ) ;
#29 = AXIS2_PLACEMENT_3D ( 'NONE', #191, #62, #85 ) ;
#30 = ORIENTED_EDGE ( 'NONE', *, *, #94, .F. ) ;
#31 = PLANE ( 'NONE',  #122 ) ;
#32 = EDGE_CURVE ( 'NONE', #244, #47, #6, .T. ) ;
#33 =( GEOMETRIC_REPRESENTATION_CONTEXT ( 3 ) GLOBAL_UNCERTAINTY_ASSIGNED_CONTEXT ( ( #75 ) ) GLOBAL_UNIT_ASSIGNED_CONTEXT ( ( #177, #215, #116 ) ) REPRESENTATION_CONTEXT ( 'NONE', 'WORKASPACE' ) );
#34 = VERTEX_POINT ( 'NONE', #102 ) ;
#35 = AXIS2_PLACEMENT_3D ( 'NONE', #257, #161, #238 ) ;
#36 = APPROVAL_DATE_TIME ( #110, #5 ) ;
#37 = ADVANCED_FACE ( 'NONE', ( #180 ), #95, .F. ) ;
#38 = CC_DESIGN_APPROVAL ( #124, ( #108 ) ) ;
#39 = DIRECTION ( 'NONE',  ( 1.000000000000000000, 0.000000000000000000, 0.000000000000000000 ) ) ;
#40 = CALENDAR_DATE ( 2022, 7, 7 ) ;
#41 = CARTESIAN_POINT ( 'NONE',  ( 0.000000000000000000, 0.000000000000000000, 503.0000000000000000 ) ) ;
#42 = COORDINATED_UNIVERSAL_TIME_OFFSET ( 1, 0, .AHEAD. ) ;
#43 = DIRECTION ( 'NONE',  ( -0.000000000000000000, -0.000000000000000000, -1.000000000000000000 ) ) ;
#44 = APPROVAL_ROLE ( '' ) ;
#45 = AXIS2_PLACEMENT_3D ( 'NONE', #112, #87, #302 ) ;
#46 = DIRECTION ( 'NONE',  ( 0.000000000000000000, 0.000000000000000000, 1.000000000000000000 ) ) ;
#47 = VERTEX_POINT ( 'NONE', #143 ) ;
#48 = DIRECTION ( 'NONE',  ( -1.000000000000000000, 0.000000000000000000, 0.000000000000000000 ) ) ;
#49 = EDGE_CURVE ( 'NONE', #34, #47, #259, .T. ) ;
#50 = EDGE_LOOP ( 'NONE', ( #96, #281, #292, #267 ) ) ;
#51 = VERTEX_POINT ( 'NONE', #21 ) ;
#52 = CARTESIAN_POINT ( 'NONE',  ( 0.000000000000000000, 0.000000000000000000, 3.000000000000000000 ) ) ;
#53 = AXIS2_PLACEMENT_3D ( 'NONE', #171, #195, #166 ) ;
#54 = ORIENTED_EDGE ( 'NONE', *, *, #183, .T. ) ;
#55 = ORIENTED_EDGE ( 'NONE', *, *, #249, .F. ) ;
#56 = PERSON_AND_ORGANIZATION ( #223, #118 ) ;
#57 = APPROVAL_STATUS ( 'not_yet_approved' ) ;
#58 = EDGE_CURVE ( 'NONE', #126, #148, #296, .T. ) ;
#59 = DIRECTION ( 'NONE',  ( -0.000000000000000000, -0.000000000000000000, -1.000000000000000000 ) ) ;
#60 = PERSON_AND_ORGANIZATION ( #223, #118 ) ;
#61 = LOCAL_TIME ( 14, 43, 2.000000000000000000, #42 ) ;
#62 = DIRECTION ( 'NONE',  ( 0.000000000000000000, 0.000000000000000000, 1.000000000000000000 ) ) ;
#63 = FACE_OUTER_BOUND ( 'NONE', #149, .T. ) ;
#64 = COORDINATED_UNIVERSAL_TIME_OFFSET ( 1, 0, .AHEAD. ) ;
#65 = DIRECTION ( 'NONE',  ( 1.000000000000000000, 0.000000000000000000, 0.000000000000000000 ) ) ;
#66 = DIRECTION ( 'NONE',  ( 0.000000000000000000, 0.000000000000000000, 1.000000000000000000 ) ) ;
#67 = VECTOR ( 'NONE', #163, 1000.000000000000000 ) ;
#68 = LINE ( 'NONE', #278, #156 ) ;
#69 = EDGE_LOOP ( 'NONE', ( #205, #7 ) ) ;
#70 = DIRECTION ( 'NONE',  ( 0.000000000000000000, 0.000000000000000000, 1.000000000000000000 ) ) ;
#71 = CARTESIAN_POINT ( 'NONE',  ( 0.000000000000000000, 0.000000000000000000, 503.0000000000000000 ) ) ;
#72 = EDGE_CURVE ( 'NONE', #182, #287, #106, .T. ) ;
#73 = ORIENTED_EDGE ( 'NONE', *, *, #164, .F. ) ;
#74 = DIRECTION ( 'NONE',  ( 0.000000000000000000, 0.000000000000000000, -1.000000000000000000 ) ) ;
#75 = UNCERTAINTY_MEASURE_WITH_UNIT (LENGTH_MEASURE( 1.000000000000000082E-05 ), #177, 'distance_accuracy_value', 'NONE');
#76 = VECTOR ( 'NONE', #194, 1000.000000000000000 ) ;
#77 = DIRECTION ( 'NONE',  ( -0.000000000000000000, -0.000000000000000000, -1.000000000000000000 ) ) ;
#78 = CARTESIAN_POINT ( 'NONE',  ( 0.000000000000000000, 0.000000000000000000, 3.199999999999980638 ) ) ;
#79 = CIRCLE ( 'NONE', #255, 0.2000000000000000944 ) ;
#80 = CLOSED_SHELL ( 'NONE', ( #154, #104, #98, #10, #168, #129, #175, #16, #37 ) ) ;
#81 = CC_DESIGN_PERSON_AND_ORGANIZATION_ASSIGNMENT ( #252, #295, ( #108 ) ) ;
#82 = CC_DESIGN_PERSON_AND_ORGANIZATION_ASSIGNMENT ( #132, #208, ( #13 ) ) ;
#83 = PERSON_AND_ORGANIZATION_ROLE ( 'classification_officer' ) ;
#84 = PERSON_AND_ORGANIZATION ( #223, #118 ) ;
#85 = DIRECTION ( 'NONE',  ( 1.000000000000000000, 0.000000000000000000, 0.000000000000000000 ) ) ;
#86 = APPROVAL_PERSON_ORGANIZATION ( #237, #124, #105 ) ;
#87 = DIRECTION ( 'NONE',  ( -0.000000000000000000, -0.000000000000000000, -1.000000000000000000 ) ) ;
#88 = MANIFOLD_SOLID_BREP ( 'Zaoblit1', #80 ) ;
#89 = DIRECTION ( 'NONE',  ( 1.000000000000000000, 0.000000000000000000, 0.000000000000000000 ) ) ;
#90 = APPLICATION_PROTOCOL_DEFINITION ( 'international standard', 'config_control_design', 1994, #138 ) ;
#91 = PRODUCT_DEFINITION_SHAPE ( 'NONE', 'NONE',  #108 ) ;
#92 = CARTESIAN_POINT ( 'NONE',  ( 0.000000000000000000, 0.000000000000000000, 3.000000000000000000 ) ) ;
#93 = DIRECTION ( 'NONE',  ( -0.000000000000000000, -0.000000000000000000, -1.000000000000000000 ) ) ;
#94 = EDGE_CURVE ( 'NONE', #127, #182, #193, .T. ) ;
#95 = TOROIDAL_SURFACE ( 'NONE', #213, 2.949999999999999734, 0.2000000000000000111 ) ;
#96 = ORIENTED_EDGE ( 'NONE', *, *, #117, .F. ) ;
#97 = ORIENTED_EDGE ( 'NONE', *, *, #145, .F. ) ;
#98 = ADVANCED_FACE ( 'NONE', ( #236 ), #212, .T. ) ;
#99 = ORIENTED_EDGE ( 'NONE', *, *, #200, .F. ) ;
#100 = DIRECTION ( 'NONE',  ( 1.000000000000000000, 0.000000000000000000, 0.000000000000000000 ) ) ;
#101 = CARTESIAN_POINT ( 'NONE',  ( -5.000000000000000000, 0.000000000000000000, 3.000000000000000000 ) ) ;
#102 = CARTESIAN_POINT ( 'NONE',  ( 5.000000000000000000, 6.123233995736766282E-16, 0.000000000000000000 ) ) ;
#103 = CC_DESIGN_APPROVAL ( #5, ( #13 ) ) ;
#104 = ADVANCED_FACE ( 'NONE', ( #63 ), #256, .T. ) ;
#105 = APPROVAL_ROLE ( '' ) ;
#106 = CIRCLE ( 'NONE', #169, 2.750000000000000000 ) ;
#107 = PLANE ( 'NONE',  #225 ) ;
#108 = PRODUCT_DEFINITION ( 'NEZNÁMÝ', '', #13, #291 ) ;
#109 = CARTESIAN_POINT ( 'NONE',  ( -2.750000000000000000, 0.000000000000000000, 503.0000000000000000 ) ) ;
#110 = DATE_AND_TIME ( #40, #11 ) ;
#111 = CIRCLE ( 'NONE', #179, 5.000000000000000000 ) ;
#112 = CARTESIAN_POINT ( 'NONE',  ( 0.000000000000000000, 0.000000000000000000, 3.000000000000000000 ) ) ;
#113 = DATE_TIME_ROLE ( 'classification_date' ) ;
#114 = CARTESIAN_POINT ( 'NONE',  ( 0.000000000000000000, 0.000000000000000000, 3.000000000000000000 ) ) ;
#115 = EDGE_LOOP ( 'NONE', ( #201, #222 ) ) ;
#116 =( NAMED_UNIT ( * ) SI_UNIT ( $, .STERADIAN. ) SOLID_ANGLE_UNIT ( ) );
#117 = EDGE_CURVE ( 'NONE', #51, #34, #68, .T. ) ;
#118 = ORGANIZATION ( 'NEURÈENÝ', 'NEURÈENÝ', '' ) ;
#119 = ORIENTED_EDGE ( 'NONE', *, *, #49, .T. ) ;
#120 = ORIENTED_EDGE ( 'NONE', *, *, #23, .F. ) ;
#121 = CARTESIAN_POINT ( 'NONE',  ( 2.750000000000000000, 3.367778697655221012E-16, 3.199999999999980638 ) ) ;
#122 = AXIS2_PLACEMENT_3D ( 'NONE', #71, #264, #151 ) ;
#123 = DIRECTION ( 'NONE',  ( 1.000000000000000000, 0.000000000000000000, 0.000000000000000000 ) ) ;
#124 = APPROVAL ( #192, 'NEURÈENÝ' ) ;
#125 = ORIENTED_EDGE ( 'NONE', *, *, #299, .T. ) ;
#126 = VERTEX_POINT ( 'NONE', #272 ) ;
#127 = VERTEX_POINT ( 'NONE', #241 ) ;
#128 = AXIS2_PLACEMENT_3D ( 'NONE', #136, #59, #89 ) ;
#129 = ADVANCED_FACE ( 'NONE', ( #305 ), #139, .F. ) ;
#130 = CC_DESIGN_DATE_AND_TIME_ASSIGNMENT ( #301, #211, ( #108 ) ) ;
#131 = SHAPE_DEFINITION_REPRESENTATION ( #91, #19 ) ;
#132 = PERSON_AND_ORGANIZATION ( #223, #118 ) ;
#133 = AXIS2_PLACEMENT_3D ( 'NONE', #153, #93, #48 ) ;
#134 = DIRECTION ( 'NONE',  ( 0.000000000000000000, 0.000000000000000000, 1.000000000000000000 ) ) ;
#135 = CC_DESIGN_PERSON_AND_ORGANIZATION_ASSIGNMENT ( #56, #187, ( #142 ) ) ;
#136 = CARTESIAN_POINT ( 'NONE',  ( 0.000000000000000000, 0.000000000000000000, 3.000000000000000000 ) ) ;
#137 = DATE_AND_TIME ( #271, #61 ) ;
#138 = APPLICATION_CONTEXT ( 'configuration controlled 3d designs of mechanical parts and assemblies' ) ;
#139 = PLANE ( 'NONE',  #53 ) ;
#140 = CALENDAR_DATE ( 2022, 7, 7 ) ;
#141 = AXIS2_PLACEMENT_3D ( 'NONE', #4, #66, #147 ) ;
#142 = PRODUCT ( '991d', '991d', '', ( #144 ) ) ;
#143 = CARTESIAN_POINT ( 'NONE',  ( -5.000000000000000000, 0.000000000000000000, 0.000000000000000000 ) ) ;
#144 = MECHANICAL_CONTEXT ( 'NONE', #138, 'mechanical' ) ;
#145 = EDGE_CURVE ( 'NONE', #51, #244, #157, .T. ) ;
#146 = CYLINDRICAL_SURFACE ( 'NONE', #297, 5.000000000000000000 ) ;
#147 = DIRECTION ( 'NONE',  ( 1.000000000000000000, 0.000000000000000000, 0.000000000000000000 ) ) ;
#148 = VERTEX_POINT ( 'NONE', #214 ) ;
#149 = EDGE_LOOP ( 'NONE', ( #120, #125, #289, #30 ) ) ;
#150 = AXIS2_PLACEMENT_3D ( 'NONE', #52, #285, #2 ) ;
#151 = DIRECTION ( 'NONE',  ( 1.000000000000000000, 0.000000000000000000, -0.000000000000000000 ) ) ;
#152 = CARTESIAN_POINT ( 'NONE',  ( -2.750000000000000000, 0.000000000000000000, 3.199999999999980638 ) ) ;
#153 = CARTESIAN_POINT ( 'NONE',  ( 0.000000000000000000, 0.000000000000000000, 503.0000000000000000 ) ) ;
#154 = ADVANCED_FACE ( 'NONE', ( #304 ), #229, .F. ) ;
#155 = ORIENTED_EDGE ( 'NONE', *, *, #164, .T. ) ;
#156 = VECTOR ( 'NONE', #24, 1000.000000000000000 ) ;
#157 = CIRCLE ( 'NONE', #35, 5.000000000000000000 ) ;
#158 = PRODUCT_RELATED_PRODUCT_CATEGORY ( 'detail', '', ( #142 ) ) ;
#159 = APPROVAL_ROLE ( '' ) ;
#160 = COORDINATED_UNIVERSAL_TIME_OFFSET ( 1, 0, .AHEAD. ) ;
#161 = DIRECTION ( 'NONE',  ( 0.000000000000000000, 0.000000000000000000, 1.000000000000000000 ) ) ;
#162 = PERSON_AND_ORGANIZATION_ROLE ( 'design_supplier' ) ;
#163 = DIRECTION ( 'NONE',  ( -0.000000000000000000, -0.000000000000000000, -1.000000000000000000 ) ) ;
#164 = EDGE_CURVE ( 'NONE', #148, #126, #270, .T. ) ;
#165 = DIRECTION ( 'NONE',  ( -1.000000000000000000, 0.000000000000000000, 0.000000000000000000 ) ) ;
#166 = DIRECTION ( 'NONE',  ( 1.000000000000000000, 0.000000000000000000, -0.000000000000000000 ) ) ;
#167 = DIRECTION ( 'NONE',  ( 1.224646799147353207E-16, 1.000000000000000000, -0.000000000000000000 ) ) ;
#168 = ADVANCED_FACE ( 'NONE', ( #216, #210 ), #107, .T. ) ;
#169 = AXIS2_PLACEMENT_3D ( 'NONE', #260, #17, #65 ) ;
#170 = CC_DESIGN_PERSON_AND_ORGANIZATION_ASSIGNMENT ( #239, #83, ( #8 ) ) ;
#171 = CARTESIAN_POINT ( 'NONE',  ( 0.000000000000000000, 0.000000000000000000, 0.000000000000000000 ) ) ;
#172 = EDGE_LOOP ( 'NONE', ( #261, #9, #54, #73 ) ) ;
#173 = DIRECTION ( 'NONE',  ( 0.000000000000000000, 0.000000000000000000, 1.000000000000000000 ) ) ;
#174 = DIRECTION ( 'NONE',  ( -1.000000000000000000, 0.000000000000000000, 0.000000000000000000 ) ) ;
#175 = ADVANCED_FACE ( 'NONE', ( #15 ), #300, .T. ) ;
#176 = DIRECTION ( 'NONE',  ( -0.000000000000000000, -0.000000000000000000, -1.000000000000000000 ) ) ;
#177 =( LENGTH_UNIT ( ) NAMED_UNIT ( * ) SI_UNIT ( .MILLI., .METRE. ) );
#178 = CC_DESIGN_DATE_AND_TIME_ASSIGNMENT ( #231, #113, ( #8 ) ) ;
#179 = AXIS2_PLACEMENT_3D ( 'NONE', #265, #173, #100 ) ;
#180 = FACE_OUTER_BOUND ( 'NONE', #172, .T. ) ;
#181 = EDGE_LOOP ( 'NONE', ( #1, #286, #202, #248 ) ) ;
#182 = VERTEX_POINT ( 'NONE', #152 ) ;
#183 = EDGE_CURVE ( 'NONE', #287, #126, #79, .T. ) ;
#184 = CIRCLE ( 'NONE', #141, 2.750000000000000000 ) ;
#185 = AXIS2_PLACEMENT_3D ( 'NONE', #114, #280, #189 ) ;
#186 = COORDINATED_UNIVERSAL_TIME_OFFSET ( 1, 0, .AHEAD. ) ;
#187 = PERSON_AND_ORGANIZATION_ROLE ( 'design_owner' ) ;
#188 = EDGE_CURVE ( 'NONE', #287, #182, #204, .T. ) ;
#189 = DIRECTION ( 'NONE',  ( 1.000000000000000000, 0.000000000000000000, 0.000000000000000000 ) ) ;
#190 = AXIS2_PLACEMENT_3D ( 'NONE', #282, #70, #258 ) ;
#191 = CARTESIAN_POINT ( 'NONE',  ( 0.000000000000000000, 0.000000000000000000, 0.000000000000000000 ) ) ;
#192 = APPROVAL_STATUS ( 'not_yet_approved' ) ;
#193 = LINE ( 'NONE', #109, #67 ) ;
#194 = DIRECTION ( 'NONE',  ( -0.000000000000000000, -0.000000000000000000, -1.000000000000000000 ) ) ;
#195 = DIRECTION ( 'NONE',  ( 0.000000000000000000, 0.000000000000000000, 1.000000000000000000 ) ) ;
#196 = CARTESIAN_POINT ( 'NONE',  ( 2.949999999999999734, 0.000000000000000000, 3.199999999999980638 ) ) ;
#197 = CIRCLE ( 'NONE', #150, 5.000000000000000000 ) ;
#198 = FACE_OUTER_BOUND ( 'NONE', #115, .T. ) ;
#199 = DIRECTION ( 'NONE',  ( 0.000000000000000000, -1.000000000000000000, 0.000000000000000000 ) ) ;
#200 = EDGE_CURVE ( 'NONE', #127, #26, #184, .T. ) ;
#201 = ORIENTED_EDGE ( 'NONE', *, *, #200, .T. ) ;
#202 = ORIENTED_EDGE ( 'NONE', *, *, #58, .F. ) ;
#203 = ORIENTED_EDGE ( 'NONE', *, *, #49, .F. ) ;
#204 = CIRCLE ( 'NONE', #190, 2.750000000000000000 ) ;
#205 = ORIENTED_EDGE ( 'NONE', *, *, #232, .T. ) ;
#206 = EDGE_LOOP ( 'NONE', ( #97, #27, #119, #219 ) ) ;
#207 = AXIS2_PLACEMENT_3D ( 'NONE', #247, #224, #123 ) ;
#208 = PERSON_AND_ORGANIZATION_ROLE ( 'creator' ) ;
#209 = CALENDAR_DATE ( 2022, 7, 7 ) ;
#210 = FACE_OUTER_BOUND ( 'NONE', #69, .T. ) ;
#211 = DATE_TIME_ROLE ( 'creation_date' ) ;
#212 = CYLINDRICAL_SURFACE ( 'NONE', #45, 5.000000000000000000 ) ;
#213 = AXIS2_PLACEMENT_3D ( 'NONE', #78, #276, #274 ) ;
#214 = CARTESIAN_POINT ( 'NONE',  ( -2.949999999999999734, 3.612708057484692097E-16, 2.999999999999990674 ) ) ;
#215 =( NAMED_UNIT ( * ) PLANE_ANGLE_UNIT ( ) SI_UNIT ( $, .RADIAN. ) );
#216 = FACE_BOUND ( 'NONE', #284, .T. ) ;
#217 = CARTESIAN_POINT ( 'NONE',  ( 0.000000000000000000, 0.000000000000000000, 3.000000000000000000 ) ) ;
#218 = LOCAL_TIME ( 14, 43, 2.000000000000000000, #186 ) ;
#219 = ORIENTED_EDGE ( 'NONE', *, *, #32, .F. ) ;
#220 = CARTESIAN_POINT ( 'NONE',  ( 2.750000000000000000, 3.367778697655221012E-16, 503.0000000000000000 ) ) ;
#221 = ORIENTED_EDGE ( 'NONE', *, *, #72, .T. ) ;
#222 = ORIENTED_EDGE ( 'NONE', *, *, #23, .T. ) ;
#223 = PERSON ( 'NEURÈENÝ', 'NEURÈENÝ', 'NEURÈENÝ', ('NEURÈENÝ'), ('NEURÈENÝ'), ('NEURÈENÝ') ) ;
#224 = DIRECTION ( 'NONE',  ( 0.000000000000000000, 0.000000000000000000, 1.000000000000000000 ) ) ;
#225 = AXIS2_PLACEMENT_3D ( 'NONE', #92, #134, #234 ) ;
#226 = ORIENTED_EDGE ( 'NONE', *, *, #299, .F. ) ;
#227 = CC_DESIGN_PERSON_AND_ORGANIZATION_ASSIGNMENT ( #60, #162, ( #13 ) ) ;
#228 = APPROVAL_PERSON_ORGANIZATION ( #277, #5, #44 ) ;
#229 = TOROIDAL_SURFACE ( 'NONE', #251, 2.949999999999999734, 0.2000000000000000111 ) ;
#230 = EDGE_LOOP ( 'NONE', ( #55, #203 ) ) ;
#231 = DATE_AND_TIME ( #22, #290 ) ;
#232 = EDGE_CURVE ( 'NONE', #244, #51, #197, .T. ) ;
#233 = CIRCLE ( 'NONE', #20, 0.2000000000000000944 ) ;
#234 = DIRECTION ( 'NONE',  ( 1.000000000000000000, 0.000000000000000000, -0.000000000000000000 ) ) ;
#235 = APPROVAL_DATE_TIME ( #137, #124 ) ;
#236 = FACE_OUTER_BOUND ( 'NONE', #206, .T. ) ;
#237 = PERSON_AND_ORGANIZATION ( #223, #118 ) ;
#238 = DIRECTION ( 'NONE',  ( 1.000000000000000000, 0.000000000000000000, 0.000000000000000000 ) ) ;
#239 = PERSON_AND_ORGANIZATION ( #223, #118 ) ;
#240 = AXIS2_PLACEMENT_3D ( 'NONE', #245, #288, #28 ) ;
#241 = CARTESIAN_POINT ( 'NONE',  ( -2.750000000000000000, 0.000000000000000000, 503.0000000000000000 ) ) ;
#242 = FACE_OUTER_BOUND ( 'NONE', #50, .T. ) ;
#243 = DIRECTION ( 'NONE',  ( -1.000000000000000000, 1.224646799147353207E-16, 0.000000000000000000 ) ) ;
#244 = VERTEX_POINT ( 'NONE', #306 ) ;
#245 = CARTESIAN_POINT ( 'NONE',  ( 0.000000000000000000, 0.000000000000000000, 0.000000000000000000 ) ) ;
#246 = CC_DESIGN_SECURITY_CLASSIFICATION ( #8, ( #13 ) ) ;
#247 = CARTESIAN_POINT ( 'NONE',  ( 0.000000000000000000, 0.000000000000000000, 503.0000000000000000 ) ) ;
#248 = ORIENTED_EDGE ( 'NONE', *, *, #183, .F. ) ;
#249 = EDGE_CURVE ( 'NONE', #47, #34, #111, .T. ) ;
#250 = AXIS2_PLACEMENT_3D ( 'NONE', #41, #43, #165 ) ;
#251 = AXIS2_PLACEMENT_3D ( 'NONE', #254, #46, #39 ) ;
#252 = PERSON_AND_ORGANIZATION ( #223, #118 ) ;
#253 = SECURITY_CLASSIFICATION_LEVEL ( 'unclassified' ) ;
#254 = CARTESIAN_POINT ( 'NONE',  ( 0.000000000000000000, 0.000000000000000000, 3.199999999999980638 ) ) ;
#255 = AXIS2_PLACEMENT_3D ( 'NONE', #196, #199, #74 ) ;
#256 = CYLINDRICAL_SURFACE ( 'NONE', #250, 2.750000000000000000 ) ;
#257 = CARTESIAN_POINT ( 'NONE',  ( 0.000000000000000000, 0.000000000000000000, 3.000000000000000000 ) ) ;
#258 = DIRECTION ( 'NONE',  ( 1.000000000000000000, 0.000000000000000000, 0.000000000000000000 ) ) ;
#259 = CIRCLE ( 'NONE', #29, 5.000000000000000000 ) ;
#260 = CARTESIAN_POINT ( 'NONE',  ( 0.000000000000000000, 0.000000000000000000, 3.199999999999980638 ) ) ;
#261 = ORIENTED_EDGE ( 'NONE', *, *, #307, .F. ) ;
#262 = LINE ( 'NONE', #220, #76 ) ;
#263 = CARTESIAN_POINT ( 'NONE',  ( 2.750000000000000000, 3.367778697655221012E-16, 503.0000000000000000 ) ) ;
#264 = DIRECTION ( 'NONE',  ( 0.000000000000000000, 0.000000000000000000, 1.000000000000000000 ) ) ;
#265 = CARTESIAN_POINT ( 'NONE',  ( 0.000000000000000000, 0.000000000000000000, 0.000000000000000000 ) ) ;
#266 = APPROVAL_PERSON_ORGANIZATION ( #84, #12, #159 ) ;
#267 = ORIENTED_EDGE ( 'NONE', *, *, #249, .T. ) ;
#268 = APPLICATION_CONTEXT ( 'configuration controlled 3d designs of mechanical parts and assemblies' ) ;
#269 = ORIENTED_EDGE ( 'NONE', *, *, #94, .T. ) ;
#270 = CIRCLE ( 'NONE', #185, 2.949999999999999734 ) ;
#271 = CALENDAR_DATE ( 2022, 7, 7 ) ;
#272 = CARTESIAN_POINT ( 'NONE',  ( 2.949999999999999734, 0.000000000000000000, 2.999999999999990674 ) ) ;
#273 = APPLICATION_PROTOCOL_DEFINITION ( 'international standard', 'config_control_design', 1994, #268 ) ;
#274 = DIRECTION ( 'NONE',  ( 1.000000000000000000, 0.000000000000000000, 0.000000000000000000 ) ) ;
#275 = VECTOR ( 'NONE', #77, 1000.000000000000000 ) ;
#276 = DIRECTION ( 'NONE',  ( 0.000000000000000000, 0.000000000000000000, 1.000000000000000000 ) ) ;
#277 = PERSON_AND_ORGANIZATION ( #223, #118 ) ;
#278 = CARTESIAN_POINT ( 'NONE',  ( 5.000000000000000000, 6.123233995736766282E-16, 3.000000000000000000 ) ) ;
#279 = CARTESIAN_POINT ( 'NONE',  ( -2.949999999999999734, 3.612708057484692097E-16, 3.199999999999980638 ) ) ;
#280 = DIRECTION ( 'NONE',  ( -0.000000000000000000, -0.000000000000000000, -1.000000000000000000 ) ) ;
#281 = ORIENTED_EDGE ( 'NONE', *, *, #232, .F. ) ;
#282 = CARTESIAN_POINT ( 'NONE',  ( 0.000000000000000000, 0.000000000000000000, 3.199999999999980638 ) ) ;
#283 = LOCAL_TIME ( 14, 43, 2.000000000000000000, #18 ) ;
#284 = EDGE_LOOP ( 'NONE', ( #3, #155 ) ) ;
#285 = DIRECTION ( 'NONE',  ( 0.000000000000000000, 0.000000000000000000, 1.000000000000000000 ) ) ;
#286 = ORIENTED_EDGE ( 'NONE', *, *, #307, .T. ) ;
#287 = VERTEX_POINT ( 'NONE', #121 ) ;
#288 = DIRECTION ( 'NONE',  ( 0.000000000000000000, 0.000000000000000000, 1.000000000000000000 ) ) ;
#289 = ORIENTED_EDGE ( 'NONE', *, *, #188, .T. ) ;
#290 = LOCAL_TIME ( 14, 43, 2.000000000000000000, #64 ) ;
#291 = DESIGN_CONTEXT ( 'detailed design', #268, 'design' ) ;
#292 = ORIENTED_EDGE ( 'NONE', *, *, #32, .T. ) ;
#293 = CC_DESIGN_APPROVAL ( #12, ( #8 ) ) ;
#294 = CIRCLE ( 'NONE', #207, 2.750000000000000000 ) ;
#295 = PERSON_AND_ORGANIZATION_ROLE ( 'creator' ) ;
#296 = CIRCLE ( 'NONE', #128, 2.949999999999999734 ) ;
#297 = AXIS2_PLACEMENT_3D ( 'NONE', #217, #176, #174 ) ;
#298 = APPROVAL_DATE_TIME ( #303, #12 ) ;
#299 = EDGE_CURVE ( 'NONE', #26, #287, #262, .T. ) ;
#300 = CYLINDRICAL_SURFACE ( 'NONE', #133, 2.750000000000000000 ) ;
#301 = DATE_AND_TIME ( #140, #283 ) ;
#302 = DIRECTION ( 'NONE',  ( -1.000000000000000000, 0.000000000000000000, 0.000000000000000000 ) ) ;
#303 = DATE_AND_TIME ( #209, #218 ) ;
#304 = FACE_OUTER_BOUND ( 'NONE', #181, .T. ) ;
#305 = FACE_OUTER_BOUND ( 'NONE', #230, .T. ) ;
#306 = CARTESIAN_POINT ( 'NONE',  ( -5.000000000000000000, 0.000000000000000000, 3.000000000000000000 ) ) ;
#307 = EDGE_CURVE ( 'NONE', #182, #148, #233, .T. ) ;
ENDSEC;
END-ISO-10303-21;
