ISO-10303-21;
HEADER;
FILE_DESCRIPTION (( 'STEP AP203' ),
    '1' );
FILE_NAME ('8136.STEP',
    '2022-07-07T12:31:54',
    ( '' ),
    ( '' ),
    'SwSTEP 2.0',
    'SolidWorks 2019',
    '' );
FILE_SCHEMA (( 'CONFIG_CONTROL_DESIGN' ));
ENDSEC;

DATA;
#1 = DIRECTION ( 'NONE',  ( 0.000000000000000000, 0.000000000000000000, 1.000000000000000000 ) ) ;
#2 = CARTESIAN_POINT ( 'NONE',  ( -4.450000000000000178, 5.449678256205721784E-16, 4.999999999999998224 ) ) ;
#3 = APPROVAL_PERSON_ORGANIZATION ( #298, #10, #136 ) ;
#4 = LINE ( 'NONE', #147, #269 ) ;
#5 = CARTESIAN_POINT ( 'NONE',  ( 0.000000000000000000, 0.000000000000000000, 5.000000000000000000 ) ) ;
#6 = CIRCLE ( 'NONE', #200, 4.450000000000000178 ) ;
#7 = VERTEX_POINT ( 'NONE', #138 ) ;
#8 = ORIENTED_EDGE ( 'NONE', *, *, #59, .T. ) ;
#9 = EDGE_LOOP ( 'NONE', ( #272, #291, #8, #168 ) ) ;
#10 = APPROVAL ( #13, 'NEURÈENÝ' ) ;
#11 = APPROVAL_STATUS ( 'not_yet_approved' ) ;
#12 = CIRCLE ( 'NONE', #216, 4.250000000000000000 ) ;
#13 = APPROVAL_STATUS ( 'not_yet_approved' ) ;
#14 = CARTESIAN_POINT ( 'NONE',  ( 4.450000000000000178, 0.000000000000000000, 5.199999999999996625 ) ) ;
#15 = ORIENTED_EDGE ( 'NONE', *, *, #59, .F. ) ;
#16 = DATE_AND_TIME ( #90, #203 ) ;
#17 = CARTESIAN_POINT ( 'NONE',  ( -4.250000000000000000, 0.000000000000000000, 5.199999999999996625 ) ) ;
#18 = EDGE_CURVE ( 'NONE', #62, #282, #51, .T. ) ;
#19 = CIRCLE ( 'NONE', #33, 7.000000000000000000 ) ;
#20 = PERSON_AND_ORGANIZATION ( #82, #55 ) ;
#21 = CIRCLE ( 'NONE', #263, 7.000000000000000000 ) ;
#22 = CARTESIAN_POINT ( 'NONE',  ( 0.000000000000000000, 0.000000000000000000, 5.000000000000000000 ) ) ;
#23 = CC_DESIGN_APPROVAL ( #10, ( #53 ) ) ;
#24 = APPROVAL_STATUS ( 'not_yet_approved' ) ;
#25 = EDGE_LOOP ( 'NONE', ( #150, #167, #233, #40 ) ) ;
#26 = CARTESIAN_POINT ( 'NONE',  ( 4.450000000000000178, 0.000000000000000000, 4.999999999999998224 ) ) ;
#27 = FACE_OUTER_BOUND ( 'NONE', #25, .T. ) ;
#28 = CC_DESIGN_APPROVAL ( #266, ( #65 ) ) ;
#29 = DIRECTION ( 'NONE',  ( -0.000000000000000000, -0.000000000000000000, -1.000000000000000000 ) ) ;
#30 = FACE_OUTER_BOUND ( 'NONE', #295, .T. ) ;
#31 = ORIENTED_EDGE ( 'NONE', *, *, #122, .F. ) ;
#32 = ORIENTED_EDGE ( 'NONE', *, *, #135, .T. ) ;
#33 = AXIS2_PLACEMENT_3D ( 'NONE', #86, #251, #199 ) ;
#34 = EDGE_CURVE ( 'NONE', #282, #62, #12, .T. ) ;
#35 = LOCAL_TIME ( 14, 31, 54.00000000000000000, #225 ) ;
#36 = CC_DESIGN_PERSON_AND_ORGANIZATION_ASSIGNMENT ( #20, #305, ( #65 ) ) ;
#37 = EDGE_CURVE ( 'NONE', #275, #153, #19, .T. ) ;
#38 = DIRECTION ( 'NONE',  ( 1.000000000000000000, 0.000000000000000000, 0.000000000000000000 ) ) ;
#39 = CARTESIAN_POINT ( 'NONE',  ( 0.000000000000000000, 0.000000000000000000, 0.000000000000000000 ) ) ;
#40 = ORIENTED_EDGE ( 'NONE', *, *, #135, .F. ) ;
#41 = APPROVAL_PERSON_ORGANIZATION ( #115, #266, #249 ) ;
#42 = DIRECTION ( 'NONE',  ( 0.000000000000000000, 0.000000000000000000, 1.000000000000000000 ) ) ;
#43 = ORIENTED_EDGE ( 'NONE', *, *, #306, .F. ) ;
#44 = ADVANCED_FACE ( 'NONE', ( #254 ), #197, .T. ) ;
#45 = CARTESIAN_POINT ( 'NONE',  ( 0.000000000000000000, 0.000000000000000000, 0.000000000000000000 ) ) ;
#46 = CIRCLE ( 'NONE', #83, 4.250000000000000000 ) ;
#47 = DATE_AND_TIME ( #131, #107 ) ;
#48 = CARTESIAN_POINT ( 'NONE',  ( 4.250000000000000000, 5.204748896376250699E-16, 105.0000000000000142 ) ) ;
#49 = CARTESIAN_POINT ( 'NONE',  ( 0.000000000000000000, 0.000000000000000000, 105.0000000000000142 ) ) ;
#50 = CARTESIAN_POINT ( 'NONE',  ( 0.000000000000000000, 0.000000000000000000, 5.000000000000000000 ) ) ;
#51 = CIRCLE ( 'NONE', #139, 4.250000000000000000 ) ;
#52 = DIRECTION ( 'NONE',  ( -0.000000000000000000, -0.000000000000000000, -1.000000000000000000 ) ) ;
#53 = PRODUCT_DEFINITION ( 'NEZNÁMÝ', '', #65, #126 ) ;
#54 = CARTESIAN_POINT ( 'NONE',  ( 0.000000000000000000, 0.000000000000000000, 5.199999999999996625 ) ) ;
#55 = ORGANIZATION ( 'NEURÈENÝ', 'NEURÈENÝ', '' ) ;
#56 = ORIENTED_EDGE ( 'NONE', *, *, #128, .T. ) ;
#57 = VERTEX_POINT ( 'NONE', #92 ) ;
#58 = VECTOR ( 'NONE', #29, 1000.000000000000000 ) ;
#59 = EDGE_CURVE ( 'NONE', #57, #69, #21, .T. ) ;
#60 = PERSON_AND_ORGANIZATION_ROLE ( 'creator' ) ;
#61 = DIRECTION ( 'NONE',  ( -0.000000000000000000, -0.000000000000000000, -1.000000000000000000 ) ) ;
#62 = VERTEX_POINT ( 'NONE', #17 ) ;
#63 = ORIENTED_EDGE ( 'NONE', *, *, #105, .T. ) ;
#64 = ADVANCED_BREP_SHAPE_REPRESENTATION ( '8136', ( #169, #304 ), #224 ) ;
#65 = PRODUCT_DEFINITION_FORMATION_WITH_SPECIFIED_SOURCE ( 'LIBOVOLNÝ', '', #145, .NOT_KNOWN. ) ;
#66 = PERSON_AND_ORGANIZATION ( #82, #55 ) ;
#67 = ORIENTED_EDGE ( 'NONE', *, *, #102, .F. ) ;
#68 = PERSON_AND_ORGANIZATION ( #82, #55 ) ;
#69 = VERTEX_POINT ( 'NONE', #202 ) ;
#70 = APPROVAL_DATE_TIME ( #109, #175 ) ;
#71 = FACE_OUTER_BOUND ( 'NONE', #195, .T. ) ;
#72 = AXIS2_PLACEMENT_3D ( 'NONE', #260, #52, #189 ) ;
#73 = CARTESIAN_POINT ( 'NONE',  ( -7.000000000000000000, 0.000000000000000000, 5.000000000000000000 ) ) ;
#74 = DIRECTION ( 'NONE',  ( 0.000000000000000000, 0.000000000000000000, 1.000000000000000000 ) ) ;
#75 = VECTOR ( 'NONE', #141, 1000.000000000000000 ) ;
#76 = PRODUCT_DEFINITION_SHAPE ( 'NONE', 'NONE',  #53 ) ;
#77 = AXIS2_PLACEMENT_3D ( 'NONE', #14, #297, #210 ) ;
#78 = CARTESIAN_POINT ( 'NONE',  ( 0.000000000000000000, 0.000000000000000000, 5.199999999999996625 ) ) ;
#79 = EDGE_CURVE ( 'NONE', #153, #69, #303, .T. ) ;
#80 = LOCAL_TIME ( 14, 31, 54.00000000000000000, #198 ) ;
#81 = ORIENTED_EDGE ( 'NONE', *, *, #34, .T. ) ;
#82 = PERSON ( 'NEURÈENÝ', 'NEURÈENÝ', 'NEURÈENÝ', ('NEURÈENÝ'), ('NEURÈENÝ'), ('NEURÈENÝ') ) ;
#83 = AXIS2_PLACEMENT_3D ( 'NONE', #230, #91, #38 ) ;
#84 = COORDINATED_UNIVERSAL_TIME_OFFSET ( 1, 0, .AHEAD. ) ;
#85 = CIRCLE ( 'NONE', #278, 7.000000000000000000 ) ;
#86 = CARTESIAN_POINT ( 'NONE',  ( 0.000000000000000000, 0.000000000000000000, 5.000000000000000000 ) ) ;
#87 = AXIS2_PLACEMENT_3D ( 'NONE', #121, #163, #283 ) ;
#88 = LINE ( 'NONE', #48, #75 ) ;
#89 = ORIENTED_EDGE ( 'NONE', *, *, #248, .F. ) ;
#90 = CALENDAR_DATE ( 2022, 7, 7 ) ;
#91 = DIRECTION ( 'NONE',  ( 0.000000000000000000, 0.000000000000000000, 1.000000000000000000 ) ) ;
#92 = CARTESIAN_POINT ( 'NONE',  ( 7.000000000000000000, 8.572527594031473190E-16, 0.000000000000000000 ) ) ;
#93 = CYLINDRICAL_SURFACE ( 'NONE', #87, 4.250000000000000000 ) ;
#94 = CALENDAR_DATE ( 2022, 7, 7 ) ;
#95 = FACE_OUTER_BOUND ( 'NONE', #106, .T. ) ;
#96 = AXIS2_PLACEMENT_3D ( 'NONE', #50, #287, #146 ) ;
#97 = DIRECTION ( 'NONE',  ( -0.000000000000000000, -0.000000000000000000, -1.000000000000000000 ) ) ;
#98 = CYLINDRICAL_SURFACE ( 'NONE', #218, 4.250000000000000000 ) ;
#99 = CC_DESIGN_PERSON_AND_ORGANIZATION_ASSIGNMENT ( #66, #232, ( #53 ) ) ;
#100 = PLANE ( 'NONE',  #191 ) ;
#101 = EDGE_CURVE ( 'NONE', #290, #222, #6, .T. ) ;
#102 = EDGE_CURVE ( 'NONE', #193, #282, #88, .T. ) ;
#103 =( NAMED_UNIT ( * ) SI_UNIT ( $, .STERADIAN. ) SOLID_ANGLE_UNIT ( ) );
#104 = EDGE_LOOP ( 'NONE', ( #293, #63 ) ) ;
#105 = EDGE_CURVE ( 'NONE', #193, #7, #247, .T. ) ;
#106 = EDGE_LOOP ( 'NONE', ( #217, #243, #81, #89 ) ) ;
#107 = LOCAL_TIME ( 14, 31, 54.00000000000000000, #84 ) ;
#108 = ORIENTED_EDGE ( 'NONE', *, *, #34, .F. ) ;
#109 = DATE_AND_TIME ( #94, #235 ) ;
#110 = CALENDAR_DATE ( 2022, 7, 7 ) ;
#111 = ORIENTED_EDGE ( 'NONE', *, *, #261, .F. ) ;
#112 = CIRCLE ( 'NONE', #164, 0.1999999999999996503 ) ;
#113 = APPLICATION_PROTOCOL_DEFINITION ( 'international standard', 'config_control_design', 1994, #156 ) ;
#114 = DIRECTION ( 'NONE',  ( 1.000000000000000000, 0.000000000000000000, 0.000000000000000000 ) ) ;
#115 = PERSON_AND_ORGANIZATION ( #82, #55 ) ;
#116 = CARTESIAN_POINT ( 'NONE',  ( 0.000000000000000000, 0.000000000000000000, 5.199999999999996625 ) ) ;
#117 = DATE_AND_TIME ( #110, #80 ) ;
#118 = EDGE_LOOP ( 'NONE', ( #236, #215 ) ) ;
#119 = CARTESIAN_POINT ( 'NONE',  ( -4.450000000000000178, 5.449678256205721784E-16, 5.199999999999996625 ) ) ;
#120 = CARTESIAN_POINT ( 'NONE',  ( 0.000000000000000000, 0.000000000000000000, 0.000000000000000000 ) ) ;
#121 = CARTESIAN_POINT ( 'NONE',  ( 0.000000000000000000, 0.000000000000000000, 105.0000000000000142 ) ) ;
#122 = EDGE_CURVE ( 'NONE', #7, #193, #46, .T. ) ;
#123 = DIRECTION ( 'NONE',  ( 1.000000000000000000, 0.000000000000000000, 0.000000000000000000 ) ) ;
#124 = DIRECTION ( 'NONE',  ( 0.000000000000000000, 0.000000000000000000, 1.000000000000000000 ) ) ;
#125 = ORIENTED_EDGE ( 'NONE', *, *, #248, .T. ) ;
#126 = DESIGN_CONTEXT ( 'detailed design', #227, 'design' ) ;
#127 = ORIENTED_EDGE ( 'NONE', *, *, #128, .F. ) ;
#128 = EDGE_CURVE ( 'NONE', #69, #57, #85, .T. ) ;
#129 = TOROIDAL_SURFACE ( 'NONE', #209, 4.450000000000000178, 0.2000000000000000111 ) ;
#130 = DIRECTION ( 'NONE',  ( 1.000000000000000000, 0.000000000000000000, 0.000000000000000000 ) ) ;
#131 = CALENDAR_DATE ( 2022, 7, 7 ) ;
#132 = DIRECTION ( 'NONE',  ( 0.000000000000000000, 0.000000000000000000, 1.000000000000000000 ) ) ;
#133 = DIRECTION ( 'NONE',  ( -1.000000000000000000, 0.000000000000000000, 0.000000000000000000 ) ) ;
#134 = CIRCLE ( 'NONE', #77, 0.1999999999999996503 ) ;
#135 = EDGE_CURVE ( 'NONE', #282, #290, #134, .T. ) ;
#136 = APPROVAL_ROLE ( '' ) ;
#137 = DIRECTION ( 'NONE',  ( 0.000000000000000000, 0.000000000000000000, 1.000000000000000000 ) ) ;
#138 = CARTESIAN_POINT ( 'NONE',  ( -4.250000000000000000, 0.000000000000000000, 105.0000000000000142 ) ) ;
#139 = AXIS2_PLACEMENT_3D ( 'NONE', #196, #152, #158 ) ;
#140 = DATE_TIME_ROLE ( 'classification_date' ) ;
#141 = DIRECTION ( 'NONE',  ( -0.000000000000000000, -0.000000000000000000, -1.000000000000000000 ) ) ;
#142 = CC_DESIGN_DATE_AND_TIME_ASSIGNMENT ( #47, #140, ( #240 ) ) ;
#143 = DIRECTION ( 'NONE',  ( 1.224646799147353207E-16, 1.000000000000000000, -0.000000000000000000 ) ) ;
#144 = CARTESIAN_POINT ( 'NONE',  ( 7.000000000000000000, 8.572527594031473190E-16, 5.000000000000000000 ) ) ;
#145 = PRODUCT ( '8136', '8136', '', ( #281 ) ) ;
#146 = DIRECTION ( 'NONE',  ( -1.000000000000000000, 0.000000000000000000, 0.000000000000000000 ) ) ;
#147 = CARTESIAN_POINT ( 'NONE',  ( -4.250000000000000000, 0.000000000000000000, 105.0000000000000142 ) ) ;
#148 = FACE_BOUND ( 'NONE', #118, .T. ) ;
#149 = EDGE_LOOP ( 'NONE', ( #67, #31, #125, #155 ) ) ;
#150 = ORIENTED_EDGE ( 'NONE', *, *, #18, .F. ) ;
#151 = CARTESIAN_POINT ( 'NONE',  ( -7.000000000000000000, 0.000000000000000000, 5.000000000000000000 ) ) ;
#152 = DIRECTION ( 'NONE',  ( 0.000000000000000000, 0.000000000000000000, 1.000000000000000000 ) ) ;
#153 = VERTEX_POINT ( 'NONE', #73 ) ;
#154 = CIRCLE ( 'NONE', #160, 7.000000000000000000 ) ;
#155 = ORIENTED_EDGE ( 'NONE', *, *, #18, .T. ) ;
#156 = APPLICATION_CONTEXT ( 'configuration controlled 3d designs of mechanical parts and assemblies' ) ;
#157 = COORDINATED_UNIVERSAL_TIME_OFFSET ( 1, 0, .AHEAD. ) ;
#158 = DIRECTION ( 'NONE',  ( 1.000000000000000000, 0.000000000000000000, 0.000000000000000000 ) ) ;
#159 = DIRECTION ( 'NONE',  ( -0.000000000000000000, -0.000000000000000000, -1.000000000000000000 ) ) ;
#160 = AXIS2_PLACEMENT_3D ( 'NONE', #5, #206, #238 ) ;
#161 = DIRECTION ( 'NONE',  ( 1.000000000000000000, 0.000000000000000000, 0.000000000000000000 ) ) ;
#162 = CARTESIAN_POINT ( 'NONE',  ( 0.000000000000000000, 0.000000000000000000, 105.0000000000000142 ) ) ;
#163 = DIRECTION ( 'NONE',  ( -0.000000000000000000, -0.000000000000000000, -1.000000000000000000 ) ) ;
#164 = AXIS2_PLACEMENT_3D ( 'NONE', #119, #143, #208 ) ;
#165 = FACE_OUTER_BOUND ( 'NONE', #104, .T. ) ;
#166 = PRODUCT_RELATED_PRODUCT_CATEGORY ( 'detail', '', ( #145 ) ) ;
#167 = ORIENTED_EDGE ( 'NONE', *, *, #267, .T. ) ;
#168 = ORIENTED_EDGE ( 'NONE', *, *, #79, .F. ) ;
#169 = MANIFOLD_SOLID_BREP ( 'Zaoblit1', #179 ) ;
#170 =( NAMED_UNIT ( * ) PLANE_ANGLE_UNIT ( ) SI_UNIT ( $, .RADIAN. ) );
#171 = UNCERTAINTY_MEASURE_WITH_UNIT (LENGTH_MEASURE( 1.000000000000000082E-05 ), #212, 'distance_accuracy_value', 'NONE');
#172 = CC_DESIGN_PERSON_AND_ORGANIZATION_ASSIGNMENT ( #294, #279, ( #240 ) ) ;
#173 = AXIS2_PLACEMENT_3D ( 'NONE', #250, #176, #253 ) ;
#174 = DIRECTION ( 'NONE',  ( -0.000000000000000000, -0.000000000000000000, -1.000000000000000000 ) ) ;
#175 = APPROVAL ( #24, 'NEURÈENÝ' ) ;
#176 = DIRECTION ( 'NONE',  ( 0.000000000000000000, 0.000000000000000000, 1.000000000000000000 ) ) ;
#177 = COORDINATED_UNIVERSAL_TIME_OFFSET ( 1, 0, .AHEAD. ) ;
#178 = DIRECTION ( 'NONE',  ( 1.000000000000000000, 0.000000000000000000, 0.000000000000000000 ) ) ;
#179 = CLOSED_SHELL ( 'NONE', ( #245, #258, #44, #207, #192, #299, #246, #180, #220 ) ) ;
#180 = ADVANCED_FACE ( 'NONE', ( #165 ), #100, .T. ) ;
#181 = PERSON_AND_ORGANIZATION ( #82, #55 ) ;
#182 = CARTESIAN_POINT ( 'NONE',  ( 0.000000000000000000, 0.000000000000000000, 0.000000000000000000 ) ) ;
#183 = DIRECTION ( 'NONE',  ( 1.000000000000000000, 0.000000000000000000, 0.000000000000000000 ) ) ;
#184 = CARTESIAN_POINT ( 'NONE',  ( 0.000000000000000000, 0.000000000000000000, 5.000000000000000000 ) ) ;
#185 = FACE_OUTER_BOUND ( 'NONE', #268, .T. ) ;
#186 = DIRECTION ( 'NONE',  ( 1.000000000000000000, 0.000000000000000000, -0.000000000000000000 ) ) ;
#187 = DIRECTION ( 'NONE',  ( 1.000000000000000000, 0.000000000000000000, -0.000000000000000000 ) ) ;
#188 = VECTOR ( 'NONE', #174, 1000.000000000000000 ) ;
#189 = DIRECTION ( 'NONE',  ( 1.000000000000000000, 0.000000000000000000, 0.000000000000000000 ) ) ;
#190 = APPROVAL_PERSON_ORGANIZATION ( #234, #175, #255 ) ;
#191 = AXIS2_PLACEMENT_3D ( 'NONE', #162, #262, #187 ) ;
#192 = ADVANCED_FACE ( 'NONE', ( #148, #71 ), #259, .T. ) ;
#193 = VERTEX_POINT ( 'NONE', #205 ) ;
#194 = SECURITY_CLASSIFICATION_LEVEL ( 'unclassified' ) ;
#195 = EDGE_LOOP ( 'NONE', ( #226, #274 ) ) ;
#196 = CARTESIAN_POINT ( 'NONE',  ( 0.000000000000000000, 0.000000000000000000, 5.199999999999996625 ) ) ;
#197 = CYLINDRICAL_SURFACE ( 'NONE', #302, 7.000000000000000000 ) ;
#198 = COORDINATED_UNIVERSAL_TIME_OFFSET ( 1, 0, .AHEAD. ) ;
#199 = DIRECTION ( 'NONE',  ( 1.000000000000000000, 0.000000000000000000, 0.000000000000000000 ) ) ;
#200 = AXIS2_PLACEMENT_3D ( 'NONE', #307, #61, #178 ) ;
#201 = DATE_AND_TIME ( #229, #35 ) ;
#202 = CARTESIAN_POINT ( 'NONE',  ( -7.000000000000000000, 0.000000000000000000, 0.000000000000000000 ) ) ;
#203 = LOCAL_TIME ( 14, 31, 54.00000000000000000, #177 ) ;
#204 = CC_DESIGN_PERSON_AND_ORGANIZATION_ASSIGNMENT ( #181, #60, ( #65 ) ) ;
#205 = CARTESIAN_POINT ( 'NONE',  ( 4.250000000000000000, 5.204748896376250699E-16, 105.0000000000000142 ) ) ;
#206 = DIRECTION ( 'NONE',  ( 0.000000000000000000, 0.000000000000000000, 1.000000000000000000 ) ) ;
#207 = ADVANCED_FACE ( 'NONE', ( #185 ), #285, .T. ) ;
#208 = DIRECTION ( 'NONE',  ( -1.000000000000000000, 1.224646799147353454E-16, 0.000000000000000000 ) ) ;
#209 = AXIS2_PLACEMENT_3D ( 'NONE', #78, #1, #161 ) ;
#210 = DIRECTION ( 'NONE',  ( 0.000000000000000000, 0.000000000000000000, -1.000000000000000000 ) ) ;
#211 = DIRECTION ( 'NONE',  ( 1.000000000000000000, 0.000000000000000000, -0.000000000000000000 ) ) ;
#212 =( LENGTH_UNIT ( ) NAMED_UNIT ( * ) SI_UNIT ( .MILLI., .METRE. ) );
#213 = AXIS2_PLACEMENT_3D ( 'NONE', #54, #74, #123 ) ;
#214 = CC_DESIGN_SECURITY_CLASSIFICATION ( #240, ( #65 ) ) ;
#215 = ORIENTED_EDGE ( 'NONE', *, *, #261, .T. ) ;
#216 = AXIS2_PLACEMENT_3D ( 'NONE', #116, #256, #114 ) ;
#217 = ORIENTED_EDGE ( 'NONE', *, *, #105, .F. ) ;
#218 = AXIS2_PLACEMENT_3D ( 'NONE', #49, #159, #264 ) ;
#219 = CC_DESIGN_PERSON_AND_ORGANIZATION_ASSIGNMENT ( #68, #252, ( #145 ) ) ;
#220 = ADVANCED_FACE ( 'NONE', ( #288 ), #129, .F. ) ;
#221 = APPLICATION_PROTOCOL_DEFINITION ( 'international standard', 'config_control_design', 1994, #227 ) ;
#222 = VERTEX_POINT ( 'NONE', #2 ) ;
#223 = DIRECTION ( 'NONE',  ( 1.000000000000000000, 0.000000000000000000, 0.000000000000000000 ) ) ;
#224 =( GEOMETRIC_REPRESENTATION_CONTEXT ( 3 ) GLOBAL_UNCERTAINTY_ASSIGNED_CONTEXT ( ( #171 ) ) GLOBAL_UNIT_ASSIGNED_CONTEXT ( ( #212, #170, #103 ) ) REPRESENTATION_CONTEXT ( 'NONE', 'WORKASPACE' ) );
#225 = COORDINATED_UNIVERSAL_TIME_OFFSET ( 1, 0, .AHEAD. ) ;
#226 = ORIENTED_EDGE ( 'NONE', *, *, #306, .T. ) ;
#227 = APPLICATION_CONTEXT ( 'configuration controlled 3d designs of mechanical parts and assemblies' ) ;
#228 = CC_DESIGN_DATE_AND_TIME_ASSIGNMENT ( #16, #276, ( #53 ) ) ;
#229 = CALENDAR_DATE ( 2022, 7, 7 ) ;
#230 = CARTESIAN_POINT ( 'NONE',  ( 0.000000000000000000, 0.000000000000000000, 105.0000000000000142 ) ) ;
#231 = EDGE_CURVE ( 'NONE', #275, #57, #265, .T. ) ;
#232 = PERSON_AND_ORGANIZATION_ROLE ( 'creator' ) ;
#233 = ORIENTED_EDGE ( 'NONE', *, *, #101, .F. ) ;
#234 = PERSON_AND_ORGANIZATION ( #82, #55 ) ;
#235 = LOCAL_TIME ( 14, 31, 54.00000000000000000, #157 ) ;
#236 = ORIENTED_EDGE ( 'NONE', *, *, #101, .T. ) ;
#237 = PLANE ( 'NONE',  #296 ) ;
#238 = DIRECTION ( 'NONE',  ( 1.000000000000000000, 0.000000000000000000, 0.000000000000000000 ) ) ;
#239 = CARTESIAN_POINT ( 'NONE',  ( 7.000000000000000000, 8.572527594031473190E-16, 5.000000000000000000 ) ) ;
#240 = SECURITY_CLASSIFICATION ( '', '', #194 ) ;
#241 = CARTESIAN_POINT ( 'NONE',  ( 4.250000000000000000, 5.204748896376250699E-16, 5.199999999999996625 ) ) ;
#242 = FACE_OUTER_BOUND ( 'NONE', #149, .T. ) ;
#243 = ORIENTED_EDGE ( 'NONE', *, *, #102, .T. ) ;
#244 = CC_DESIGN_APPROVAL ( #175, ( #240 ) ) ;
#245 = ADVANCED_FACE ( 'NONE', ( #27 ), #284, .F. ) ;
#246 = ADVANCED_FACE ( 'NONE', ( #242 ), #93, .T. ) ;
#247 = CIRCLE ( 'NONE', #173, 4.250000000000000000 ) ;
#248 = EDGE_CURVE ( 'NONE', #7, #62, #4, .T. ) ;
#249 = APPROVAL_ROLE ( '' ) ;
#250 = CARTESIAN_POINT ( 'NONE',  ( 0.000000000000000000, 0.000000000000000000, 105.0000000000000142 ) ) ;
#251 = DIRECTION ( 'NONE',  ( 0.000000000000000000, 0.000000000000000000, 1.000000000000000000 ) ) ;
#252 = PERSON_AND_ORGANIZATION_ROLE ( 'design_owner' ) ;
#253 = DIRECTION ( 'NONE',  ( 1.000000000000000000, 0.000000000000000000, 0.000000000000000000 ) ) ;
#254 = FACE_OUTER_BOUND ( 'NONE', #9, .T. ) ;
#255 = APPROVAL_ROLE ( '' ) ;
#256 = DIRECTION ( 'NONE',  ( 0.000000000000000000, 0.000000000000000000, 1.000000000000000000 ) ) ;
#257 = SHAPE_DEFINITION_REPRESENTATION ( #76, #64 ) ;
#258 = ADVANCED_FACE ( 'NONE', ( #95 ), #98, .T. ) ;
#259 = PLANE ( 'NONE',  #289 ) ;
#260 = CARTESIAN_POINT ( 'NONE',  ( 0.000000000000000000, 0.000000000000000000, 5.000000000000000000 ) ) ;
#261 = EDGE_CURVE ( 'NONE', #222, #290, #292, .T. ) ;
#262 = DIRECTION ( 'NONE',  ( 0.000000000000000000, 0.000000000000000000, 1.000000000000000000 ) ) ;
#263 = AXIS2_PLACEMENT_3D ( 'NONE', #45, #137, #183 ) ;
#264 = DIRECTION ( 'NONE',  ( -1.000000000000000000, 0.000000000000000000, 0.000000000000000000 ) ) ;
#265 = LINE ( 'NONE', #239, #58 ) ;
#266 = APPROVAL ( #11, 'NEURÈENÝ' ) ;
#267 = EDGE_CURVE ( 'NONE', #62, #222, #112, .T. ) ;
#268 = EDGE_LOOP ( 'NONE', ( #270, #43, #300, #56 ) ) ;
#269 = VECTOR ( 'NONE', #97, 1000.000000000000000 ) ;
#270 = ORIENTED_EDGE ( 'NONE', *, *, #231, .F. ) ;
#271 = EDGE_LOOP ( 'NONE', ( #277, #108, #32, #111 ) ) ;
#272 = ORIENTED_EDGE ( 'NONE', *, *, #37, .F. ) ;
#273 = APPROVAL_DATE_TIME ( #201, #10 ) ;
#274 = ORIENTED_EDGE ( 'NONE', *, *, #37, .T. ) ;
#275 = VERTEX_POINT ( 'NONE', #144 ) ;
#276 = DATE_TIME_ROLE ( 'creation_date' ) ;
#277 = ORIENTED_EDGE ( 'NONE', *, *, #267, .F. ) ;
#278 = AXIS2_PLACEMENT_3D ( 'NONE', #182, #132, #223 ) ;
#279 = PERSON_AND_ORGANIZATION_ROLE ( 'classification_officer' ) ;
#280 = DIRECTION ( 'NONE',  ( -0.000000000000000000, -0.000000000000000000, -1.000000000000000000 ) ) ;
#281 = MECHANICAL_CONTEXT ( 'NONE', #156, 'mechanical' ) ;
#282 = VERTEX_POINT ( 'NONE', #241 ) ;
#283 = DIRECTION ( 'NONE',  ( -1.000000000000000000, 0.000000000000000000, 0.000000000000000000 ) ) ;
#284 = TOROIDAL_SURFACE ( 'NONE', #213, 4.450000000000000178, 0.2000000000000000111 ) ;
#285 = CYLINDRICAL_SURFACE ( 'NONE', #96, 7.000000000000000000 ) ;
#286 = DIRECTION ( 'NONE',  ( 0.000000000000000000, 0.000000000000000000, 1.000000000000000000 ) ) ;
#287 = DIRECTION ( 'NONE',  ( -0.000000000000000000, -0.000000000000000000, -1.000000000000000000 ) ) ;
#288 = FACE_OUTER_BOUND ( 'NONE', #271, .T. ) ;
#289 = AXIS2_PLACEMENT_3D ( 'NONE', #184, #286, #186 ) ;
#290 = VERTEX_POINT ( 'NONE', #26 ) ;
#291 = ORIENTED_EDGE ( 'NONE', *, *, #231, .T. ) ;
#292 = CIRCLE ( 'NONE', #72, 4.450000000000000178 ) ;
#293 = ORIENTED_EDGE ( 'NONE', *, *, #122, .T. ) ;
#294 = PERSON_AND_ORGANIZATION ( #82, #55 ) ;
#295 = EDGE_LOOP ( 'NONE', ( #127, #15 ) ) ;
#296 = AXIS2_PLACEMENT_3D ( 'NONE', #120, #124, #211 ) ;
#297 = DIRECTION ( 'NONE',  ( 0.000000000000000000, -1.000000000000000000, 0.000000000000000000 ) ) ;
#298 = PERSON_AND_ORGANIZATION ( #82, #55 ) ;
#299 = ADVANCED_FACE ( 'NONE', ( #30 ), #237, .F. ) ;
#300 = ORIENTED_EDGE ( 'NONE', *, *, #79, .T. ) ;
#301 = APPROVAL_DATE_TIME ( #117, #266 ) ;
#302 = AXIS2_PLACEMENT_3D ( 'NONE', #22, #280, #133 ) ;
#303 = LINE ( 'NONE', #151, #188 ) ;
#304 = AXIS2_PLACEMENT_3D ( 'NONE', #39, #42, #130 ) ;
#305 = PERSON_AND_ORGANIZATION_ROLE ( 'design_supplier' ) ;
#306 = EDGE_CURVE ( 'NONE', #153, #275, #154, .T. ) ;
#307 = CARTESIAN_POINT ( 'NONE',  ( 0.000000000000000000, 0.000000000000000000, 5.000000000000000000 ) ) ;
ENDSEC;
END-ISO-10303-21;
