ISO-10303-21;
HEADER;
FILE_DESCRIPTION (( 'STEP AP203' ),
    '1' );
FILE_NAME ('6d55.STEP',
    '2022-07-07T12:40:13',
    ( '' ),
    ( '' ),
    'SwSTEP 2.0',
    'SolidWorks 2019',
    '' );
FILE_SCHEMA (( 'CONFIG_CONTROL_DESIGN' ));
ENDSEC;

DATA;
#1 = DIRECTION ( 'NONE',  ( -0.000000000000000000, -0.000000000000000000, -1.000000000000000000 ) ) ;
#2 = DIRECTION ( 'NONE',  ( 1.000000000000000000, 0.000000000000000000, -0.000000000000000000 ) ) ;
#3 = DIRECTION ( 'NONE',  ( -0.000000000000000000, -0.000000000000000000, -1.000000000000000000 ) ) ;
#4 = VERTEX_POINT ( 'NONE', #134 ) ;
#5 = AXIS2_PLACEMENT_3D ( 'NONE', #98, #194, #68 ) ;
#6 = AXIS2_PLACEMENT_3D ( 'NONE', #220, #263, #2 ) ;
#7 = PERSON_AND_ORGANIZATION ( #72, #137 ) ;
#8 = EDGE_LOOP ( 'NONE', ( #112, #79, #209, #14 ) ) ;
#9 = EDGE_CURVE ( 'NONE', #179, #210, #303, .T. ) ;
#10 = ORIENTED_EDGE ( 'NONE', *, *, #180, .F. ) ;
#11 = APPROVAL_DATE_TIME ( #36, #285 ) ;
#12 = CC_DESIGN_SECURITY_CLASSIFICATION ( #232, ( #282 ) ) ;
#13 = ADVANCED_FACE ( 'NONE', ( #39 ), #299, .T. ) ;
#14 = ORIENTED_EDGE ( 'NONE', *, *, #211, .T. ) ;
#15 = ADVANCED_FACE ( 'NONE', ( #274 ), #16, .F. ) ;
#16 = PLANE ( 'NONE',  #260 ) ;
#17 = ORIENTED_EDGE ( 'NONE', *, *, #264, .T. ) ;
#18 = CC_DESIGN_APPROVAL ( #22, ( #282 ) ) ;
#19 = CARTESIAN_POINT ( 'NONE',  ( 0.000000000000000000, 0.000000000000000000, 5.200000000000009948 ) ) ;
#20 = ADVANCED_FACE ( 'NONE', ( #187 ), #231, .F. ) ;
#21 = DIRECTION ( 'NONE',  ( 1.000000000000000000, 0.000000000000000000, 0.000000000000000000 ) ) ;
#22 = APPROVAL ( #241, 'NEURÈENÝ' ) ;
#23 = CARTESIAN_POINT ( 'NONE',  ( 6.000000000000000888, 7.347880794884120722E-16, 5.000000000000000000 ) ) ;
#24 = FACE_OUTER_BOUND ( 'NONE', #252, .T. ) ;
#25 = CARTESIAN_POINT ( 'NONE',  ( 3.299999999999999822, 0.000000000000000000, 5.200000000000009948 ) ) ;
#26 = PLANE ( 'NONE',  #6 ) ;
#27 = CC_DESIGN_APPROVAL ( #285, ( #232 ) ) ;
#28 = EDGE_CURVE ( 'NONE', #171, #179, #80, .T. ) ;
#29 = DATE_AND_TIME ( #173, #239 ) ;
#30 = COORDINATED_UNIVERSAL_TIME_OFFSET ( 1, 0, .AHEAD. ) ;
#31 = AXIS2_PLACEMENT_3D ( 'NONE', #216, #290, #213 ) ;
#32 = CALENDAR_DATE ( 2022, 7, 7 ) ;
#33 =( LENGTH_UNIT ( ) NAMED_UNIT ( * ) SI_UNIT ( .MILLI., .METRE. ) );
#34 = ORIENTED_EDGE ( 'NONE', *, *, #139, .T. ) ;
#35 = CC_DESIGN_PERSON_AND_ORGANIZATION_ASSIGNMENT ( #199, #295, ( #232 ) ) ;
#36 = DATE_AND_TIME ( #240, #122 ) ;
#37 = AXIS2_PLACEMENT_3D ( 'NONE', #124, #307, #143 ) ;
#38 = ORIENTED_EDGE ( 'NONE', *, *, #65, .F. ) ;
#39 = FACE_OUTER_BOUND ( 'NONE', #159, .T. ) ;
#40 = ORIENTED_EDGE ( 'NONE', *, *, #264, .F. ) ;
#41 = FACE_OUTER_BOUND ( 'NONE', #155, .T. ) ;
#42 = CC_DESIGN_PERSON_AND_ORGANIZATION_ASSIGNMENT ( #203, #169, ( #153 ) ) ;
#43 = DIRECTION ( 'NONE',  ( 0.000000000000000000, 0.000000000000000000, 1.000000000000000000 ) ) ;
#44 = CARTESIAN_POINT ( 'NONE',  ( -6.000000000000000888, 0.000000000000000000, 5.000000000000000000 ) ) ;
#45 = DIRECTION ( 'NONE',  ( 0.000000000000000000, 0.000000000000000000, -1.000000000000000000 ) ) ;
#46 = CIRCLE ( 'NONE', #183, 3.299999999999999822 ) ;
#47 = PLANE ( 'NONE',  #301 ) ;
#48 = CARTESIAN_POINT ( 'NONE',  ( 0.000000000000000000, 0.000000000000000000, 5.000000000000000000 ) ) ;
#49 = CARTESIAN_POINT ( 'NONE',  ( 0.000000000000000000, 0.000000000000000000, 5.200000000000009948 ) ) ;
#50 = ADVANCED_FACE ( 'NONE', ( #302 ), #275, .T. ) ;
#51 = PERSON_AND_ORGANIZATION_ROLE ( 'design_owner' ) ;
#52 = ORIENTED_EDGE ( 'NONE', *, *, #170, .F. ) ;
#53 = PERSON_AND_ORGANIZATION ( #72, #137 ) ;
#54 = VERTEX_POINT ( 'NONE', #257 ) ;
#55 = CIRCLE ( 'NONE', #104, 3.100000000000000089 ) ;
#56 = VERTEX_POINT ( 'NONE', #158 ) ;
#57 = COORDINATED_UNIVERSAL_TIME_OFFSET ( 1, 0, .AHEAD. ) ;
#58 = VERTEX_POINT ( 'NONE', #160 ) ;
#59 = CIRCLE ( 'NONE', #31, 3.100000000000000089 ) ;
#60 = DIRECTION ( 'NONE',  ( -0.000000000000000000, -0.000000000000000000, -1.000000000000000000 ) ) ;
#61 = DIRECTION ( 'NONE',  ( -0.000000000000000000, -0.000000000000000000, -1.000000000000000000 ) ) ;
#62 = DIRECTION ( 'NONE',  ( 1.000000000000000000, 0.000000000000000000, 0.000000000000000000 ) ) ;
#63 = DIRECTION ( 'NONE',  ( 0.000000000000000000, 0.000000000000000000, 1.000000000000000000 ) ) ;
#64 = DIRECTION ( 'NONE',  ( 1.000000000000000000, 0.000000000000000000, 0.000000000000000000 ) ) ;
#65 = EDGE_CURVE ( 'NONE', #4, #300, #130, .T. ) ;
#66 = DIRECTION ( 'NONE',  ( 0.000000000000000000, 0.000000000000000000, 1.000000000000000000 ) ) ;
#67 = LINE ( 'NONE', #23, #261 ) ;
#68 = DIRECTION ( 'NONE',  ( 1.000000000000000000, 0.000000000000000000, 0.000000000000000000 ) ) ;
#69 = DIRECTION ( 'NONE',  ( 1.000000000000000000, 0.000000000000000000, 0.000000000000000000 ) ) ;
#70 = APPROVAL_STATUS ( 'not_yet_approved' ) ;
#71 = ORIENTED_EDGE ( 'NONE', *, *, #248, .F. ) ;
#72 = PERSON ( 'NEURÈENÝ', 'NEURÈENÝ', 'NEURÈENÝ', ('NEURÈENÝ'), ('NEURÈENÝ'), ('NEURÈENÝ') ) ;
#73 = AXIS2_PLACEMENT_3D ( 'NONE', #19, #43, #186 ) ;
#74 = CIRCLE ( 'NONE', #5, 6.000000000000000888 ) ;
#75 = PERSON_AND_ORGANIZATION ( #72, #137 ) ;
#76 =( NAMED_UNIT ( * ) PLANE_ANGLE_UNIT ( ) SI_UNIT ( $, .RADIAN. ) );
#77 = EDGE_LOOP ( 'NONE', ( #10, #133, #226, #178 ) ) ;
#78 = CALENDAR_DATE ( 2022, 7, 7 ) ;
#79 = ORIENTED_EDGE ( 'NONE', *, *, #28, .F. ) ;
#80 = CIRCLE ( 'NONE', #254, 3.100000000000000089 ) ;
#81 = APPROVAL_PERSON_ORGANIZATION ( #75, #97, #273 ) ;
#82 = PERSON_AND_ORGANIZATION ( #72, #137 ) ;
#83 = ADVANCED_FACE ( 'NONE', ( #41 ), #91, .T. ) ;
#84 = DIRECTION ( 'NONE',  ( -1.000000000000000000, 0.000000000000000000, 0.000000000000000000 ) ) ;
#85 = ADVANCED_FACE ( 'NONE', ( #136 ), #166, .T. ) ;
#86 = DIRECTION ( 'NONE',  ( -1.000000000000000000, 0.000000000000000000, 0.000000000000000000 ) ) ;
#87 = PRODUCT_DEFINITION_SHAPE ( 'NONE', 'NONE',  #153 ) ;
#88 = AXIS2_PLACEMENT_3D ( 'NONE', #163, #140, #235 ) ;
#89 = DIRECTION ( 'NONE',  ( 1.000000000000000000, 0.000000000000000000, 0.000000000000000000 ) ) ;
#90 = DIRECTION ( 'NONE',  ( -0.000000000000000000, -0.000000000000000000, -1.000000000000000000 ) ) ;
#91 = CYLINDRICAL_SURFACE ( 'NONE', #116, 6.000000000000000888 ) ;
#92 = CARTESIAN_POINT ( 'NONE',  ( 0.000000000000000000, 0.000000000000000000, 0.000000000000000000 ) ) ;
#93 = CC_DESIGN_APPROVAL ( #97, ( #153 ) ) ;
#94 = DIRECTION ( 'NONE',  ( -0.000000000000000000, -0.000000000000000000, -1.000000000000000000 ) ) ;
#95 = CARTESIAN_POINT ( 'NONE',  ( -3.100000000000000089, 0.000000000000000000, 255.0000000000000000 ) ) ;
#96 = DIRECTION ( 'NONE',  ( 1.000000000000000000, 0.000000000000000000, 0.000000000000000000 ) ) ;
#97 = APPROVAL ( #70, 'NEURÈENÝ' ) ;
#98 = CARTESIAN_POINT ( 'NONE',  ( 0.000000000000000000, 0.000000000000000000, 5.000000000000000000 ) ) ;
#99 = DIRECTION ( 'NONE',  ( 1.000000000000000000, 0.000000000000000000, 0.000000000000000000 ) ) ;
#100 = APPLICATION_PROTOCOL_DEFINITION ( 'international standard', 'config_control_design', 1994, #138 ) ;
#101 = ORIENTED_EDGE ( 'NONE', *, *, #182, .F. ) ;
#102 = CLOSED_SHELL ( 'NONE', ( #277, #50, #83, #13, #195, #15, #85, #148, #20 ) ) ;
#103 = CC_DESIGN_PERSON_AND_ORGANIZATION_ASSIGNMENT ( #196, #51, ( #107 ) ) ;
#104 = AXIS2_PLACEMENT_3D ( 'NONE', #193, #164, #64 ) ;
#105 = SECURITY_CLASSIFICATION_LEVEL ( 'unclassified' ) ;
#106 = EDGE_LOOP ( 'NONE', ( #52, #202, #17, #38 ) ) ;
#107 = PRODUCT ( '6d55', '6d55', '', ( #292 ) ) ;
#108 = APPROVAL_ROLE ( '' ) ;
#109 = APPLICATION_PROTOCOL_DEFINITION ( 'international standard', 'config_control_design', 1994, #118 ) ;
#110 = ORIENTED_EDGE ( 'NONE', *, *, #272, .T. ) ;
#111 = AXIS2_PLACEMENT_3D ( 'NONE', #25, #259, #45 ) ;
#112 = ORIENTED_EDGE ( 'NONE', *, *, #9, .F. ) ;
#113 = ORIENTED_EDGE ( 'NONE', *, *, #293, .T. ) ;
#114 = CARTESIAN_POINT ( 'NONE',  ( 0.000000000000000000, 0.000000000000000000, 255.0000000000000000 ) ) ;
#115 = CIRCLE ( 'NONE', #219, 6.000000000000000888 ) ;
#116 = AXIS2_PLACEMENT_3D ( 'NONE', #278, #61, #84 ) ;
#117 = VERTEX_POINT ( 'NONE', #44 ) ;
#118 = APPLICATION_CONTEXT ( 'configuration controlled 3d designs of mechanical parts and assemblies' ) ;
#119 = DIRECTION ( 'NONE',  ( -1.000000000000000000, 0.000000000000000000, 0.000000000000000000 ) ) ;
#120 = DIRECTION ( 'NONE',  ( 1.000000000000000000, 0.000000000000000000, -0.000000000000000000 ) ) ;
#121 = DIRECTION ( 'NONE',  ( -0.000000000000000000, -0.000000000000000000, -1.000000000000000000 ) ) ;
#122 = LOCAL_TIME ( 14, 40, 13.00000000000000000, #57 ) ;
#123 = LINE ( 'NONE', #237, #276 ) ;
#124 = CARTESIAN_POINT ( 'NONE',  ( 0.000000000000000000, 0.000000000000000000, 5.200000000000009948 ) ) ;
#125 = DIRECTION ( 'NONE',  ( -1.000000000000000000, 1.224646799147353207E-16, 0.000000000000000000 ) ) ;
#126 = AXIS2_PLACEMENT_3D ( 'NONE', #92, #287, #96 ) ;
#127 = DATE_AND_TIME ( #32, #250 ) ;
#128 =( NAMED_UNIT ( * ) SI_UNIT ( $, .STERADIAN. ) SOLID_ANGLE_UNIT ( ) );
#129 = CARTESIAN_POINT ( 'NONE',  ( 0.000000000000000000, 0.000000000000000000, 0.000000000000000000 ) ) ;
#130 = CIRCLE ( 'NONE', #243, 3.299999999999999822 ) ;
#131 =( GEOMETRIC_REPRESENTATION_CONTEXT ( 3 ) GLOBAL_UNCERTAINTY_ASSIGNED_CONTEXT ( ( #233 ) ) GLOBAL_UNIT_ASSIGNED_CONTEXT ( ( #33, #76, #128 ) ) REPRESENTATION_CONTEXT ( 'NONE', 'WORKASPACE' ) );
#132 = ORIENTED_EDGE ( 'NONE', *, *, #267, .T. ) ;
#133 = ORIENTED_EDGE ( 'NONE', *, *, #9, .T. ) ;
#134 = CARTESIAN_POINT ( 'NONE',  ( -3.299999999999999822, 4.041334437186265510E-16, 5.000000000000005329 ) ) ;
#135 = MANIFOLD_SOLID_BREP ( 'Zaoblit1', #102 ) ;
#136 = FACE_OUTER_BOUND ( 'NONE', #8, .T. ) ;
#137 = ORGANIZATION ( 'NEURÈENÝ', 'NEURÈENÝ', '' ) ;
#138 = APPLICATION_CONTEXT ( 'configuration controlled 3d designs of mechanical parts and assemblies' ) ;
#139 = EDGE_CURVE ( 'NONE', #58, #117, #115, .T. ) ;
#140 = DIRECTION ( 'NONE',  ( 0.000000000000000000, 0.000000000000000000, 1.000000000000000000 ) ) ;
#141 = FACE_OUTER_BOUND ( 'NONE', #212, .T. ) ;
#142 = CARTESIAN_POINT ( 'NONE',  ( -6.000000000000000888, 0.000000000000000000, 5.000000000000000000 ) ) ;
#143 = DIRECTION ( 'NONE',  ( 1.000000000000000000, 0.000000000000000000, 0.000000000000000000 ) ) ;
#144 = CC_DESIGN_PERSON_AND_ORGANIZATION_ASSIGNMENT ( #7, #297, ( #282 ) ) ;
#145 = DIRECTION ( 'NONE',  ( 0.000000000000000000, 0.000000000000000000, 1.000000000000000000 ) ) ;
#146 = APPROVAL_PERSON_ORGANIZATION ( #53, #285, #225 ) ;
#147 = DATE_AND_TIME ( #78, #306 ) ;
#148 = ADVANCED_FACE ( 'NONE', ( #24 ), #47, .T. ) ;
#149 = COORDINATED_UNIVERSAL_TIME_OFFSET ( 1, 0, .AHEAD. ) ;
#150 = ORIENTED_EDGE ( 'NONE', *, *, #283, .T. ) ;
#151 = PERSON_AND_ORGANIZATION_ROLE ( 'design_supplier' ) ;
#152 = ORIENTED_EDGE ( 'NONE', *, *, #211, .F. ) ;
#153 = PRODUCT_DEFINITION ( 'NEZNÁMÝ', '', #282, #190 ) ;
#154 = SHAPE_DEFINITION_REPRESENTATION ( #87, #221 ) ;
#155 = EDGE_LOOP ( 'NONE', ( #175, #113, #200, #101 ) ) ;
#156 = DIRECTION ( 'NONE',  ( 1.000000000000000000, 0.000000000000000000, -0.000000000000000000 ) ) ;
#157 = EDGE_CURVE ( 'NONE', #210, #54, #176, .T. ) ;
#158 = CARTESIAN_POINT ( 'NONE',  ( -6.000000000000000888, 0.000000000000000000, 0.000000000000000000 ) ) ;
#159 = EDGE_LOOP ( 'NONE', ( #294, #249, #234, #150 ) ) ;
#160 = CARTESIAN_POINT ( 'NONE',  ( 6.000000000000000888, 7.347880794884120722E-16, 5.000000000000000000 ) ) ;
#161 = LOCAL_TIME ( 14, 40, 13.00000000000000000, #244 ) ;
#162 = ORIENTED_EDGE ( 'NONE', *, *, #170, .T. ) ;
#163 = CARTESIAN_POINT ( 'NONE',  ( 0.000000000000000000, 0.000000000000000000, 0.000000000000000000 ) ) ;
#164 = DIRECTION ( 'NONE',  ( 0.000000000000000000, 0.000000000000000000, 1.000000000000000000 ) ) ;
#165 = AXIS2_PLACEMENT_3D ( 'NONE', #129, #270, #99 ) ;
#166 = CYLINDRICAL_SURFACE ( 'NONE', #288, 3.100000000000000089 ) ;
#167 = CARTESIAN_POINT ( 'NONE',  ( 0.000000000000000000, 0.000000000000000000, 5.000000000000000000 ) ) ;
#168 = DIRECTION ( 'NONE',  ( 1.000000000000000000, 0.000000000000000000, 0.000000000000000000 ) ) ;
#169 = PERSON_AND_ORGANIZATION_ROLE ( 'creator' ) ;
#170 = EDGE_CURVE ( 'NONE', #54, #4, #224, .T. ) ;
#171 = VERTEX_POINT ( 'NONE', #95 ) ;
#172 = APPROVAL_DATE_TIME ( #127, #97 ) ;
#173 = CALENDAR_DATE ( 2022, 7, 7 ) ;
#174 = APPROVAL_STATUS ( 'not_yet_approved' ) ;
#175 = ORIENTED_EDGE ( 'NONE', *, *, #139, .F. ) ;
#176 = CIRCLE ( 'NONE', #37, 3.100000000000000089 ) ;
#177 = DATE_AND_TIME ( #246, #161 ) ;
#178 = ORIENTED_EDGE ( 'NONE', *, *, #206, .F. ) ;
#179 = VERTEX_POINT ( 'NONE', #238 ) ;
#180 = EDGE_CURVE ( 'NONE', #179, #171, #59, .T. ) ;
#181 = ORIENTED_EDGE ( 'NONE', *, *, #28, .T. ) ;
#182 = EDGE_CURVE ( 'NONE', #117, #56, #284, .T. ) ;
#183 = AXIS2_PLACEMENT_3D ( 'NONE', #167, #189, #168 ) ;
#184 = CC_DESIGN_DATE_AND_TIME_ASSIGNMENT ( #177, #269, ( #232 ) ) ;
#185 = CARTESIAN_POINT ( 'NONE',  ( 0.000000000000000000, 0.000000000000000000, 0.000000000000000000 ) ) ;
#186 = DIRECTION ( 'NONE',  ( 1.000000000000000000, 0.000000000000000000, 0.000000000000000000 ) ) ;
#187 = FACE_OUTER_BOUND ( 'NONE', #106, .T. ) ;
#188 = AXIS2_PLACEMENT_3D ( 'NONE', #229, #90, #86 ) ;
#189 = DIRECTION ( 'NONE',  ( -0.000000000000000000, -0.000000000000000000, -1.000000000000000000 ) ) ;
#190 = DESIGN_CONTEXT ( 'detailed design', #118, 'design' ) ;
#191 = DIRECTION ( 'NONE',  ( 0.000000000000000000, 0.000000000000000000, 1.000000000000000000 ) ) ;
#192 = CARTESIAN_POINT ( 'NONE',  ( -3.299999999999999822, 4.041334437186265510E-16, 5.200000000000009948 ) ) ;
#193 = CARTESIAN_POINT ( 'NONE',  ( 0.000000000000000000, 0.000000000000000000, 5.200000000000009948 ) ) ;
#194 = DIRECTION ( 'NONE',  ( 0.000000000000000000, 0.000000000000000000, 1.000000000000000000 ) ) ;
#195 = ADVANCED_FACE ( 'NONE', ( #236, #215 ), #26, .T. ) ;
#196 = PERSON_AND_ORGANIZATION ( #72, #137 ) ;
#197 = AXIS2_PLACEMENT_3D ( 'NONE', #192, #218, #125 ) ;
#198 = ORIENTED_EDGE ( 'NONE', *, *, #180, .T. ) ;
#199 = PERSON_AND_ORGANIZATION ( #72, #137 ) ;
#200 = ORIENTED_EDGE ( 'NONE', *, *, #248, .T. ) ;
#201 = COORDINATED_UNIVERSAL_TIME_OFFSET ( 1, 0, .AHEAD. ) ;
#202 = ORIENTED_EDGE ( 'NONE', *, *, #157, .F. ) ;
#203 = PERSON_AND_ORGANIZATION ( #72, #137 ) ;
#204 = EDGE_LOOP ( 'NONE', ( #110, #230 ) ) ;
#205 = CARTESIAN_POINT ( 'NONE',  ( 3.100000000000000089, 3.796405077356794918E-16, 255.0000000000000000 ) ) ;
#206 = EDGE_CURVE ( 'NONE', #171, #54, #123, .T. ) ;
#207 = DIRECTION ( 'NONE',  ( -0.000000000000000000, -0.000000000000000000, -1.000000000000000000 ) ) ;
#208 = CC_DESIGN_PERSON_AND_ORGANIZATION_ASSIGNMENT ( #82, #151, ( #282 ) ) ;
#209 = ORIENTED_EDGE ( 'NONE', *, *, #206, .T. ) ;
#210 = VERTEX_POINT ( 'NONE', #286 ) ;
#211 = EDGE_CURVE ( 'NONE', #54, #210, #55, .T. ) ;
#212 = EDGE_LOOP ( 'NONE', ( #152, #162, #271, #40 ) ) ;
#213 = DIRECTION ( 'NONE',  ( 1.000000000000000000, 0.000000000000000000, 0.000000000000000000 ) ) ;
#214 = AXIS2_PLACEMENT_3D ( 'NONE', #49, #145, #21 ) ;
#215 = FACE_OUTER_BOUND ( 'NONE', #296, .T. ) ;
#216 = CARTESIAN_POINT ( 'NONE',  ( 0.000000000000000000, 0.000000000000000000, 255.0000000000000000 ) ) ;
#217 = PRODUCT_RELATED_PRODUCT_CATEGORY ( 'detail', '', ( #107 ) ) ;
#218 = DIRECTION ( 'NONE',  ( 1.224646799147353207E-16, 1.000000000000000000, -0.000000000000000000 ) ) ;
#219 = AXIS2_PLACEMENT_3D ( 'NONE', #48, #66, #69 ) ;
#220 = CARTESIAN_POINT ( 'NONE',  ( 0.000000000000000000, 0.000000000000000000, 5.000000000000000000 ) ) ;
#221 = ADVANCED_BREP_SHAPE_REPRESENTATION ( '6d55', ( #135, #165 ), #131 ) ;
#222 = VECTOR ( 'NONE', #253, 1000.000000000000000 ) ;
#223 = APPROVAL_DATE_TIME ( #29, #22 ) ;
#224 = CIRCLE ( 'NONE', #197, 0.2000000000000000944 ) ;
#225 = APPROVAL_ROLE ( '' ) ;
#226 = ORIENTED_EDGE ( 'NONE', *, *, #157, .T. ) ;
#227 = TOROIDAL_SURFACE ( 'NONE', #214, 3.299999999999999822, 0.2000000000000000111 ) ;
#228 = EDGE_LOOP ( 'NONE', ( #247, #71 ) ) ;
#229 = CARTESIAN_POINT ( 'NONE',  ( 0.000000000000000000, 0.000000000000000000, 5.000000000000000000 ) ) ;
#230 = ORIENTED_EDGE ( 'NONE', *, *, #65, .T. ) ;
#231 = TOROIDAL_SURFACE ( 'NONE', #73, 3.299999999999999822, 0.2000000000000000111 ) ;
#232 = SECURITY_CLASSIFICATION ( '', '', #105 ) ;
#233 = UNCERTAINTY_MEASURE_WITH_UNIT (LENGTH_MEASURE( 1.000000000000000082E-05 ), #33, 'distance_accuracy_value', 'NONE');
#234 = ORIENTED_EDGE ( 'NONE', *, *, #182, .T. ) ;
#235 = DIRECTION ( 'NONE',  ( 1.000000000000000000, 0.000000000000000000, 0.000000000000000000 ) ) ;
#236 = FACE_BOUND ( 'NONE', #204, .T. ) ;
#237 = CARTESIAN_POINT ( 'NONE',  ( -3.100000000000000089, 0.000000000000000000, 255.0000000000000000 ) ) ;
#238 = CARTESIAN_POINT ( 'NONE',  ( 3.100000000000000089, 3.796405077356794918E-16, 255.0000000000000000 ) ) ;
#239 = LOCAL_TIME ( 14, 40, 13.00000000000000000, #30 ) ;
#240 = CALENDAR_DATE ( 2022, 7, 7 ) ;
#241 = APPROVAL_STATUS ( 'not_yet_approved' ) ;
#242 = PERSON_AND_ORGANIZATION ( #72, #137 ) ;
#243 = AXIS2_PLACEMENT_3D ( 'NONE', #251, #207, #89 ) ;
#244 = COORDINATED_UNIVERSAL_TIME_OFFSET ( 1, 0, .AHEAD. ) ;
#245 = VECTOR ( 'NONE', #94, 1000.000000000000000 ) ;
#246 = CALENDAR_DATE ( 2022, 7, 7 ) ;
#247 = ORIENTED_EDGE ( 'NONE', *, *, #283, .F. ) ;
#248 = EDGE_CURVE ( 'NONE', #280, #56, #265, .T. ) ;
#249 = ORIENTED_EDGE ( 'NONE', *, *, #267, .F. ) ;
#250 = LOCAL_TIME ( 14, 40, 13.00000000000000000, #149 ) ;
#251 = CARTESIAN_POINT ( 'NONE',  ( 0.000000000000000000, 0.000000000000000000, 5.000000000000000000 ) ) ;
#252 = EDGE_LOOP ( 'NONE', ( #181, #198 ) ) ;
#253 = DIRECTION ( 'NONE',  ( -0.000000000000000000, -0.000000000000000000, -1.000000000000000000 ) ) ;
#254 = AXIS2_PLACEMENT_3D ( 'NONE', #279, #304, #62 ) ;
#255 = CC_DESIGN_DATE_AND_TIME_ASSIGNMENT ( #147, #268, ( #153 ) ) ;
#256 = CIRCLE ( 'NONE', #111, 0.1999999999999996503 ) ;
#257 = CARTESIAN_POINT ( 'NONE',  ( -3.100000000000000089, 0.000000000000000000, 5.200000000000009948 ) ) ;
#258 = CARTESIAN_POINT ( 'NONE',  ( 0.000000000000000000, 0.000000000000000000, 255.0000000000000000 ) ) ;
#259 = DIRECTION ( 'NONE',  ( 0.000000000000000000, -1.000000000000000000, 0.000000000000000000 ) ) ;
#260 = AXIS2_PLACEMENT_3D ( 'NONE', #185, #63, #156 ) ;
#261 = VECTOR ( 'NONE', #121, 1000.000000000000000 ) ;
#262 = DIRECTION ( 'NONE',  ( -1.000000000000000000, 0.000000000000000000, 0.000000000000000000 ) ) ;
#263 = DIRECTION ( 'NONE',  ( 0.000000000000000000, 0.000000000000000000, 1.000000000000000000 ) ) ;
#264 = EDGE_CURVE ( 'NONE', #210, #300, #256, .T. ) ;
#265 = CIRCLE ( 'NONE', #126, 6.000000000000000888 ) ;
#266 = CARTESIAN_POINT ( 'NONE',  ( 3.299999999999999822, 0.000000000000000000, 5.000000000000005329 ) ) ;
#267 = EDGE_CURVE ( 'NONE', #117, #58, #74, .T. ) ;
#268 = DATE_TIME_ROLE ( 'creation_date' ) ;
#269 = DATE_TIME_ROLE ( 'classification_date' ) ;
#270 = DIRECTION ( 'NONE',  ( 0.000000000000000000, 0.000000000000000000, 1.000000000000000000 ) ) ;
#271 = ORIENTED_EDGE ( 'NONE', *, *, #272, .F. ) ;
#272 = EDGE_CURVE ( 'NONE', #300, #4, #46, .T. ) ;
#273 = APPROVAL_ROLE ( '' ) ;
#274 = FACE_OUTER_BOUND ( 'NONE', #228, .T. ) ;
#275 = CYLINDRICAL_SURFACE ( 'NONE', #281, 3.100000000000000089 ) ;
#276 = VECTOR ( 'NONE', #3, 1000.000000000000000 ) ;
#277 = ADVANCED_FACE ( 'NONE', ( #141 ), #227, .F. ) ;
#278 = CARTESIAN_POINT ( 'NONE',  ( 0.000000000000000000, 0.000000000000000000, 5.000000000000000000 ) ) ;
#279 = CARTESIAN_POINT ( 'NONE',  ( 0.000000000000000000, 0.000000000000000000, 255.0000000000000000 ) ) ;
#280 = VERTEX_POINT ( 'NONE', #305 ) ;
#281 = AXIS2_PLACEMENT_3D ( 'NONE', #114, #60, #119 ) ;
#282 = PRODUCT_DEFINITION_FORMATION_WITH_SPECIFIED_SOURCE ( 'LIBOVOLNÝ', '', #107, .NOT_KNOWN. ) ;
#283 = EDGE_CURVE ( 'NONE', #56, #280, #298, .T. ) ;
#284 = LINE ( 'NONE', #142, #245 ) ;
#285 = APPROVAL ( #174, 'NEURÈENÝ' ) ;
#286 = CARTESIAN_POINT ( 'NONE',  ( 3.100000000000000089, 3.796405077356794918E-16, 5.200000000000009948 ) ) ;
#287 = DIRECTION ( 'NONE',  ( 0.000000000000000000, 0.000000000000000000, 1.000000000000000000 ) ) ;
#288 = AXIS2_PLACEMENT_3D ( 'NONE', #258, #1, #262 ) ;
#289 = APPROVAL_PERSON_ORGANIZATION ( #242, #22, #108 ) ;
#290 = DIRECTION ( 'NONE',  ( 0.000000000000000000, 0.000000000000000000, 1.000000000000000000 ) ) ;
#291 = CARTESIAN_POINT ( 'NONE',  ( 0.000000000000000000, 0.000000000000000000, 255.0000000000000000 ) ) ;
#292 = MECHANICAL_CONTEXT ( 'NONE', #138, 'mechanical' ) ;
#293 = EDGE_CURVE ( 'NONE', #58, #280, #67, .T. ) ;
#294 = ORIENTED_EDGE ( 'NONE', *, *, #293, .F. ) ;
#295 = PERSON_AND_ORGANIZATION_ROLE ( 'classification_officer' ) ;
#296 = EDGE_LOOP ( 'NONE', ( #132, #34 ) ) ;
#297 = PERSON_AND_ORGANIZATION_ROLE ( 'creator' ) ;
#298 = CIRCLE ( 'NONE', #88, 6.000000000000000888 ) ;
#299 = CYLINDRICAL_SURFACE ( 'NONE', #188, 6.000000000000000888 ) ;
#300 = VERTEX_POINT ( 'NONE', #266 ) ;
#301 = AXIS2_PLACEMENT_3D ( 'NONE', #291, #191, #120 ) ;
#302 = FACE_OUTER_BOUND ( 'NONE', #77, .T. ) ;
#303 = LINE ( 'NONE', #205, #222 ) ;
#304 = DIRECTION ( 'NONE',  ( 0.000000000000000000, 0.000000000000000000, 1.000000000000000000 ) ) ;
#305 = CARTESIAN_POINT ( 'NONE',  ( 6.000000000000000888, 7.347880794884120722E-16, 0.000000000000000000 ) ) ;
#306 = LOCAL_TIME ( 14, 40, 13.00000000000000000, #201 ) ;
#307 = DIRECTION ( 'NONE',  ( 0.000000000000000000, 0.000000000000000000, 1.000000000000000000 ) ) ;
ENDSEC;
END-ISO-10303-21;
