ISO-10303-21;
HEADER;
FILE_DESCRIPTION (( 'STEP AP203' ),
    '1' );
FILE_NAME ('d467.STEP',
    '2022-07-07T12:18:26',
    ( '' ),
    ( '' ),
    'SwSTEP 2.0',
    'SolidWorks 2019',
    '' );
FILE_SCHEMA (( 'CONFIG_CONTROL_DESIGN' ));
ENDSEC;

DATA;
#1 = CALENDAR_DATE ( 2022, 7, 7 ) ;
#2 = CARTESIAN_POINT ( 'NONE',  ( 0.000000000000000000, 0.000000000000000000, 168.0000000000000000 ) ) ;
#3 = AXIS2_PLACEMENT_3D ( 'NONE', #123, #71, #29 ) ;
#4 = LOCAL_TIME ( 14, 18, 26.00000000000000000, #128 ) ;
#5 = EDGE_LOOP ( 'NONE', ( #120, #111 ) ) ;
#6 = ORIENTED_EDGE ( 'NONE', *, *, #246, .T. ) ;
#7 = CIRCLE ( 'NONE', #229, 0.2000000000000005107 ) ;
#8 = EDGE_CURVE ( 'NONE', #239, #152, #53, .T. ) ;
#9 = DATE_AND_TIME ( #61, #4 ) ;
#10 = CC_DESIGN_PERSON_AND_ORGANIZATION_ASSIGNMENT ( #24, #95, ( #284 ) ) ;
#11 = EDGE_CURVE ( 'NONE', #237, #18, #96, .T. ) ;
#12 = CARTESIAN_POINT ( 'NONE',  ( 10.00000000000000000, 1.224646799147353256E-15, 168.0000000000000000 ) ) ;
#13 = CARTESIAN_POINT ( 'NONE',  ( 10.20000000000000107, 0.000000000000000000, 8.200000000000013500 ) ) ;
#14 = DIRECTION ( 'NONE',  ( 0.000000000000000000, 0.000000000000000000, -1.000000000000000000 ) ) ;
#15 = AXIS2_PLACEMENT_3D ( 'NONE', #60, #135, #268 ) ;
#16 = EDGE_LOOP ( 'NONE', ( #234, #44, #276, #142 ) ) ;
#17 = DIRECTION ( 'NONE',  ( -1.000000000000000000, 0.000000000000000000, 0.000000000000000000 ) ) ;
#18 = VERTEX_POINT ( 'NONE', #282 ) ;
#19 = CARTESIAN_POINT ( 'NONE',  ( 0.000000000000000000, 0.000000000000000000, 8.000000000000000000 ) ) ;
#20 = ORIENTED_EDGE ( 'NONE', *, *, #104, .F. ) ;
#21 = DIRECTION ( 'NONE',  ( 1.000000000000000000, 0.000000000000000000, 0.000000000000000000 ) ) ;
#22 = LOCAL_TIME ( 14, 18, 26.00000000000000000, #37 ) ;
#23 = EDGE_LOOP ( 'NONE', ( #113, #144, #280, #205 ) ) ;
#24 = PERSON_AND_ORGANIZATION ( #274, #206 ) ;
#25 = ORIENTED_EDGE ( 'NONE', *, *, #259, .T. ) ;
#26 = ORIENTED_EDGE ( 'NONE', *, *, #121, .F. ) ;
#27 = APPROVAL_ROLE ( '' ) ;
#28 = DIRECTION ( 'NONE',  ( -1.000000000000000000, 1.224646799147353207E-16, 0.000000000000000000 ) ) ;
#29 = DIRECTION ( 'NONE',  ( -1.000000000000000000, 0.000000000000000000, 0.000000000000000000 ) ) ;
#30 = EDGE_CURVE ( 'NONE', #239, #261, #177, .T. ) ;
#31 = CIRCLE ( 'NONE', #59, 13.00000000000000178 ) ;
#32 = ADVANCED_BREP_SHAPE_REPRESENTATION ( 'd467', ( #176, #269 ), #117 ) ;
#33 = DIRECTION ( 'NONE',  ( -1.000000000000000000, 0.000000000000000000, 0.000000000000000000 ) ) ;
#34 = PRODUCT ( 'd467', 'd467', '', ( #208 ) ) ;
#35 = AXIS2_PLACEMENT_3D ( 'NONE', #19, #296, #63 ) ;
#36 = PERSON_AND_ORGANIZATION_ROLE ( 'classification_officer' ) ;
#37 = COORDINATED_UNIVERSAL_TIME_OFFSET ( 1, 0, .AHEAD. ) ;
#38 = AXIS2_PLACEMENT_3D ( 'NONE', #141, #300, #162 ) ;
#39 = SECURITY_CLASSIFICATION ( '', '', #52 ) ;
#40 = FACE_OUTER_BOUND ( 'NONE', #297, .T. ) ;
#41 = PLANE ( 'NONE',  #15 ) ;
#42 = AXIS2_PLACEMENT_3D ( 'NONE', #285, #124, #304 ) ;
#43 = CARTESIAN_POINT ( 'NONE',  ( 0.000000000000000000, 0.000000000000000000, 8.000000000000000000 ) ) ;
#44 = ORIENTED_EDGE ( 'NONE', *, *, #197, .F. ) ;
#45 = ORIENTED_EDGE ( 'NONE', *, *, #30, .T. ) ;
#46 = PERSON_AND_ORGANIZATION_ROLE ( 'design_owner' ) ;
#47 = DIRECTION ( 'NONE',  ( 1.000000000000000000, 0.000000000000000000, 0.000000000000000000 ) ) ;
#48 = CLOSED_SHELL ( 'NONE', ( #265, #114, #215, #54, #106, #222, #80, #85, #65 ) ) ;
#49 = ORIENTED_EDGE ( 'NONE', *, *, #275, .F. ) ;
#50 = PERSON_AND_ORGANIZATION ( #274, #206 ) ;
#51 = CARTESIAN_POINT ( 'NONE',  ( -13.00000000000000178, 0.000000000000000000, 8.000000000000000000 ) ) ;
#52 = SECURITY_CLASSIFICATION_LEVEL ( 'unclassified' ) ;
#53 = LINE ( 'NONE', #244, #136 ) ;
#54 = ADVANCED_FACE ( 'NONE', ( #119 ), #242, .T. ) ;
#55 = CARTESIAN_POINT ( 'NONE',  ( 10.20000000000000107, 0.000000000000000000, 8.000000000000007105 ) ) ;
#56 = CIRCLE ( 'NONE', #193, 13.00000000000000178 ) ;
#57 = EDGE_CURVE ( 'NONE', #74, #89, #196, .T. ) ;
#58 = DATE_AND_TIME ( #221, #22 ) ;
#59 = AXIS2_PLACEMENT_3D ( 'NONE', #226, #134, #137 ) ;
#60 = CARTESIAN_POINT ( 'NONE',  ( 0.000000000000000000, 0.000000000000000000, 0.000000000000000000 ) ) ;
#61 = CALENDAR_DATE ( 2022, 7, 7 ) ;
#62 = AXIS2_PLACEMENT_3D ( 'NONE', #248, #179, #161 ) ;
#63 = DIRECTION ( 'NONE',  ( 1.000000000000000000, 0.000000000000000000, 0.000000000000000000 ) ) ;
#64 = DIRECTION ( 'NONE',  ( 1.000000000000000000, 0.000000000000000000, 0.000000000000000000 ) ) ;
#65 = ADVANCED_FACE ( 'NONE', ( #188 ), #82, .F. ) ;
#66 = DIRECTION ( 'NONE',  ( 1.000000000000000000, 0.000000000000000000, -0.000000000000000000 ) ) ;
#67 = CYLINDRICAL_SURFACE ( 'NONE', #159, 13.00000000000000178 ) ;
#68 = VERTEX_POINT ( 'NONE', #218 ) ;
#69 = PERSON_AND_ORGANIZATION_ROLE ( 'design_supplier' ) ;
#70 = EDGE_LOOP ( 'NONE', ( #232, #20, #6, #94 ) ) ;
#71 = DIRECTION ( 'NONE',  ( -0.000000000000000000, -0.000000000000000000, -1.000000000000000000 ) ) ;
#72 = ORIENTED_EDGE ( 'NONE', *, *, #139, .T. ) ;
#73 =( NAMED_UNIT ( * ) SI_UNIT ( $, .STERADIAN. ) SOLID_ANGLE_UNIT ( ) );
#74 = VERTEX_POINT ( 'NONE', #101 ) ;
#75 = DATE_AND_TIME ( #257, #174 ) ;
#76 = CARTESIAN_POINT ( 'NONE',  ( 13.00000000000000178, 1.592040838891559293E-15, 8.000000000000000000 ) ) ;
#77 = EDGE_CURVE ( 'NONE', #152, #68, #127, .T. ) ;
#78 = CARTESIAN_POINT ( 'NONE',  ( 0.000000000000000000, 0.000000000000000000, 8.200000000000013500 ) ) ;
#79 = APPROVAL_PERSON_ORGANIZATION ( #92, #235, #306 ) ;
#80 = ADVANCED_FACE ( 'NONE', ( #283 ), #278, .T. ) ;
#81 = PRODUCT_DEFINITION_SHAPE ( 'NONE', 'NONE',  #284 ) ;
#82 = TOROIDAL_SURFACE ( 'NONE', #42, 10.20000000000000107, 0.2000000000000000111 ) ;
#83 = CC_DESIGN_SECURITY_CLASSIFICATION ( #39, ( #290 ) ) ;
#84 = DIRECTION ( 'NONE',  ( 1.000000000000000000, 0.000000000000000000, 0.000000000000000000 ) ) ;
#85 = ADVANCED_FACE ( 'NONE', ( #217 ), #213, .T. ) ;
#86 = AXIS2_PLACEMENT_3D ( 'NONE', #202, #90, #66 ) ;
#87 = DIRECTION ( 'NONE',  ( -1.000000000000000000, 0.000000000000000000, 0.000000000000000000 ) ) ;
#88 = DIRECTION ( 'NONE',  ( 0.000000000000000000, 0.000000000000000000, 1.000000000000000000 ) ) ;
#89 = VERTEX_POINT ( 'NONE', #167 ) ;
#90 = DIRECTION ( 'NONE',  ( 0.000000000000000000, 0.000000000000000000, 1.000000000000000000 ) ) ;
#91 = CARTESIAN_POINT ( 'NONE',  ( 0.000000000000000000, 0.000000000000000000, 168.0000000000000000 ) ) ;
#92 = PERSON_AND_ORGANIZATION ( #274, #206 ) ;
#93 = DIRECTION ( 'NONE',  ( -0.000000000000000000, -0.000000000000000000, -1.000000000000000000 ) ) ;
#94 = ORIENTED_EDGE ( 'NONE', *, *, #139, .F. ) ;
#95 = PERSON_AND_ORGANIZATION_ROLE ( 'creator' ) ;
#96 = LINE ( 'NONE', #76, #108 ) ;
#97 = DATE_AND_TIME ( #1, #171 ) ;
#98 = DIRECTION ( 'NONE',  ( 0.000000000000000000, 0.000000000000000000, 1.000000000000000000 ) ) ;
#99 = AXIS2_PLACEMENT_3D ( 'NONE', #225, #298, #294 ) ;
#100 = VERTEX_POINT ( 'NONE', #55 ) ;
#101 = CARTESIAN_POINT ( 'NONE',  ( -13.00000000000000178, 0.000000000000000000, 8.000000000000000000 ) ) ;
#102 = CIRCLE ( 'NONE', #62, 10.00000000000000000 ) ;
#103 = APPLICATION_CONTEXT ( 'configuration controlled 3d designs of mechanical parts and assemblies' ) ;
#104 = EDGE_CURVE ( 'NONE', #116, #152, #146, .T. ) ;
#105 = PLANE ( 'NONE',  #86 ) ;
#106 = ADVANCED_FACE ( 'NONE', ( #271, #112 ), #105, .T. ) ;
#107 = DIRECTION ( 'NONE',  ( 1.000000000000000000, 0.000000000000000000, 0.000000000000000000 ) ) ;
#108 = VECTOR ( 'NONE', #307, 1000.000000000000000 ) ;
#109 = FACE_OUTER_BOUND ( 'NONE', #183, .T. ) ;
#110 = CC_DESIGN_PERSON_AND_ORGANIZATION_ASSIGNMENT ( #266, #36, ( #39 ) ) ;
#111 = ORIENTED_EDGE ( 'NONE', *, *, #227, .F. ) ;
#112 = FACE_OUTER_BOUND ( 'NONE', #189, .T. ) ;
#113 = ORIENTED_EDGE ( 'NONE', *, *, #219, .F. ) ;
#114 = ADVANCED_FACE ( 'NONE', ( #40 ), #199, .T. ) ;
#115 = CARTESIAN_POINT ( 'NONE',  ( 0.000000000000000000, 0.000000000000000000, 8.000000000000000000 ) ) ;
#116 = VERTEX_POINT ( 'NONE', #184 ) ;
#117 =( GEOMETRIC_REPRESENTATION_CONTEXT ( 3 ) GLOBAL_UNCERTAINTY_ASSIGNED_CONTEXT ( ( #132 ) ) GLOBAL_UNIT_ASSIGNED_CONTEXT ( ( #131, #254, #73 ) ) REPRESENTATION_CONTEXT ( 'NONE', 'WORKASPACE' ) );
#118 = ORIENTED_EDGE ( 'NONE', *, *, #8, .T. ) ;
#119 = FACE_OUTER_BOUND ( 'NONE', #16, .T. ) ;
#120 = ORIENTED_EDGE ( 'NONE', *, *, #133, .F. ) ;
#121 = EDGE_CURVE ( 'NONE', #261, #116, #228, .T. ) ;
#122 = DATE_TIME_ROLE ( 'creation_date' ) ;
#123 = CARTESIAN_POINT ( 'NONE',  ( 0.000000000000000000, 0.000000000000000000, 168.0000000000000000 ) ) ;
#124 = DIRECTION ( 'NONE',  ( 0.000000000000000000, 0.000000000000000000, 1.000000000000000000 ) ) ;
#125 = AXIS2_PLACEMENT_3D ( 'NONE', #43, #270, #64 ) ;
#126 = ORIENTED_EDGE ( 'NONE', *, *, #259, .F. ) ;
#127 = CIRCLE ( 'NONE', #220, 0.2000000000000005107 ) ;
#128 = COORDINATED_UNIVERSAL_TIME_OFFSET ( 1, 0, .AHEAD. ) ;
#129 = PERSON_AND_ORGANIZATION ( #274, #206 ) ;
#130 = VECTOR ( 'NONE', #181, 1000.000000000000000 ) ;
#131 =( LENGTH_UNIT ( ) NAMED_UNIT ( * ) SI_UNIT ( .MILLI., .METRE. ) );
#132 = UNCERTAINTY_MEASURE_WITH_UNIT (LENGTH_MEASURE( 1.000000000000000082E-05 ), #131, 'distance_accuracy_value', 'NONE');
#133 = EDGE_CURVE ( 'NONE', #89, #18, #264, .T. ) ;
#134 = DIRECTION ( 'NONE',  ( 0.000000000000000000, 0.000000000000000000, 1.000000000000000000 ) ) ;
#135 = DIRECTION ( 'NONE',  ( 0.000000000000000000, 0.000000000000000000, 1.000000000000000000 ) ) ;
#136 = VECTOR ( 'NONE', #210, 1000.000000000000000 ) ;
#137 = DIRECTION ( 'NONE',  ( 1.000000000000000000, 0.000000000000000000, 0.000000000000000000 ) ) ;
#138 = CC_DESIGN_APPROVAL ( #301, ( #290 ) ) ;
#139 = EDGE_CURVE ( 'NONE', #68, #100, #295, .T. ) ;
#140 = ORIENTED_EDGE ( 'NONE', *, *, #104, .T. ) ;
#141 = CARTESIAN_POINT ( 'NONE',  ( 0.000000000000000000, 0.000000000000000000, 168.0000000000000000 ) ) ;
#142 = ORIENTED_EDGE ( 'NONE', *, *, #133, .T. ) ;
#143 = CC_DESIGN_PERSON_AND_ORGANIZATION_ASSIGNMENT ( #277, #281, ( #290 ) ) ;
#144 = ORIENTED_EDGE ( 'NONE', *, *, #11, .T. ) ;
#145 = COORDINATED_UNIVERSAL_TIME_OFFSET ( 1, 0, .AHEAD. ) ;
#146 = CIRCLE ( 'NONE', #201, 10.00000000000000000 ) ;
#147 = ORIENTED_EDGE ( 'NONE', *, *, #292, .F. ) ;
#148 = CC_DESIGN_APPROVAL ( #235, ( #284 ) ) ;
#149 = APPROVAL_STATUS ( 'not_yet_approved' ) ;
#150 = CALENDAR_DATE ( 2022, 7, 7 ) ;
#151 = DIRECTION ( 'NONE',  ( 0.000000000000000000, 0.000000000000000000, 1.000000000000000000 ) ) ;
#152 = VERTEX_POINT ( 'NONE', #203 ) ;
#153 = AXIS2_PLACEMENT_3D ( 'NONE', #195, #151, #170 ) ;
#154 = APPROVAL_PERSON_ORGANIZATION ( #129, #211, #198 ) ;
#155 = CC_DESIGN_PERSON_AND_ORGANIZATION_ASSIGNMENT ( #240, #46, ( #34 ) ) ;
#156 = APPROVAL_STATUS ( 'not_yet_approved' ) ;
#157 = AXIS2_PLACEMENT_3D ( 'NONE', #251, #186, #291 ) ;
#158 = DIRECTION ( 'NONE',  ( 0.000000000000000000, 0.000000000000000000, 1.000000000000000000 ) ) ;
#159 = AXIS2_PLACEMENT_3D ( 'NONE', #250, #252, #17 ) ;
#160 = CC_DESIGN_APPROVAL ( #211, ( #39 ) ) ;
#161 = DIRECTION ( 'NONE',  ( 1.000000000000000000, 0.000000000000000000, 0.000000000000000000 ) ) ;
#162 = DIRECTION ( 'NONE',  ( 1.000000000000000000, 0.000000000000000000, 0.000000000000000000 ) ) ;
#163 = FACE_OUTER_BOUND ( 'NONE', #23, .T. ) ;
#164 = ORIENTED_EDGE ( 'NONE', *, *, #219, .T. ) ;
#165 = DIRECTION ( 'NONE',  ( 0.000000000000000000, -1.000000000000000000, 0.000000000000000000 ) ) ;
#166 = APPLICATION_PROTOCOL_DEFINITION ( 'international standard', 'config_control_design', 1994, #293 ) ;
#167 = CARTESIAN_POINT ( 'NONE',  ( -13.00000000000000178, 0.000000000000000000, 0.000000000000000000 ) ) ;
#168 = APPROVAL_DATE_TIME ( #238, #235 ) ;
#169 = AXIS2_PLACEMENT_3D ( 'NONE', #91, #182, #87 ) ;
#170 = DIRECTION ( 'NONE',  ( 1.000000000000000000, 0.000000000000000000, 0.000000000000000000 ) ) ;
#171 = LOCAL_TIME ( 14, 18, 26.00000000000000000, #212 ) ;
#172 = ORIENTED_EDGE ( 'NONE', *, *, #292, .T. ) ;
#173 = DIRECTION ( 'NONE',  ( -0.000000000000000000, -0.000000000000000000, -1.000000000000000000 ) ) ;
#174 = LOCAL_TIME ( 14, 18, 26.00000000000000000, #190 ) ;
#175 = CC_DESIGN_DATE_AND_TIME_ASSIGNMENT ( #58, #178, ( #39 ) ) ;
#176 = MANIFOLD_SOLID_BREP ( 'Zaoblit1', #48 ) ;
#177 = CIRCLE ( 'NONE', #153, 10.00000000000000000 ) ;
#178 = DATE_TIME_ROLE ( 'classification_date' ) ;
#179 = DIRECTION ( 'NONE',  ( 0.000000000000000000, 0.000000000000000000, 1.000000000000000000 ) ) ;
#180 = VECTOR ( 'NONE', #173, 1000.000000000000000 ) ;
#181 = DIRECTION ( 'NONE',  ( -0.000000000000000000, -0.000000000000000000, -1.000000000000000000 ) ) ;
#182 = DIRECTION ( 'NONE',  ( -0.000000000000000000, -0.000000000000000000, -1.000000000000000000 ) ) ;
#183 = EDGE_LOOP ( 'NONE', ( #147, #209, #126, #185 ) ) ;
#184 = CARTESIAN_POINT ( 'NONE',  ( 10.00000000000000000, 1.224646799147353256E-15, 8.200000000000013500 ) ) ;
#185 = ORIENTED_EDGE ( 'NONE', *, *, #246, .F. ) ;
#186 = DIRECTION ( 'NONE',  ( 0.000000000000000000, 0.000000000000000000, 1.000000000000000000 ) ) ;
#187 = EDGE_LOOP ( 'NONE', ( #25, #72 ) ) ;
#188 = FACE_OUTER_BOUND ( 'NONE', #70, .T. ) ;
#189 = EDGE_LOOP ( 'NONE', ( #191, #164 ) ) ;
#190 = COORDINATED_UNIVERSAL_TIME_OFFSET ( 1, 0, .AHEAD. ) ;
#191 = ORIENTED_EDGE ( 'NONE', *, *, #197, .T. ) ;
#192 = APPROVAL_DATE_TIME ( #97, #301 ) ;
#193 = AXIS2_PLACEMENT_3D ( 'NONE', #115, #88, #107 ) ;
#194 = DIRECTION ( 'NONE',  ( 1.000000000000000000, 0.000000000000000000, -0.000000000000000000 ) ) ;
#195 = CARTESIAN_POINT ( 'NONE',  ( 0.000000000000000000, 0.000000000000000000, 168.0000000000000000 ) ) ;
#196 = LINE ( 'NONE', #51, #180 ) ;
#197 = EDGE_CURVE ( 'NONE', #74, #237, #243, .T. ) ;
#198 = APPROVAL_ROLE ( '' ) ;
#199 = CYLINDRICAL_SURFACE ( 'NONE', #169, 10.00000000000000000 ) ;
#200 = CARTESIAN_POINT ( 'NONE',  ( -10.00000000000000000, 0.000000000000000000, 168.0000000000000000 ) ) ;
#201 = AXIS2_PLACEMENT_3D ( 'NONE', #78, #262, #47 ) ;
#202 = CARTESIAN_POINT ( 'NONE',  ( 0.000000000000000000, 0.000000000000000000, 8.000000000000000000 ) ) ;
#203 = CARTESIAN_POINT ( 'NONE',  ( -10.00000000000000000, 0.000000000000000000, 8.200000000000013500 ) ) ;
#204 = EDGE_LOOP ( 'NONE', ( #45, #256 ) ) ;
#205 = ORIENTED_EDGE ( 'NONE', *, *, #57, .F. ) ;
#206 = ORGANIZATION ( 'NEURÈENÝ', 'NEURÈENÝ', '' ) ;
#207 = CC_DESIGN_DATE_AND_TIME_ASSIGNMENT ( #75, #122, ( #284 ) ) ;
#208 = MECHANICAL_CONTEXT ( 'NONE', #293, 'mechanical' ) ;
#209 = ORIENTED_EDGE ( 'NONE', *, *, #77, .T. ) ;
#210 = DIRECTION ( 'NONE',  ( -0.000000000000000000, -0.000000000000000000, -1.000000000000000000 ) ) ;
#211 = APPROVAL ( #156, 'NEURÈENÝ' ) ;
#212 = COORDINATED_UNIVERSAL_TIME_OFFSET ( 1, 0, .AHEAD. ) ;
#213 = PLANE ( 'NONE',  #216 ) ;
#214 = DIRECTION ( 'NONE',  ( 0.000000000000000000, 0.000000000000000000, 1.000000000000000000 ) ) ;
#215 = ADVANCED_FACE ( 'NONE', ( #163 ), #67, .T. ) ;
#216 = AXIS2_PLACEMENT_3D ( 'NONE', #2, #98, #194 ) ;
#217 = FACE_OUTER_BOUND ( 'NONE', #204, .T. ) ;
#218 = CARTESIAN_POINT ( 'NONE',  ( -10.20000000000000107, 1.249139735130300365E-15, 8.000000000000007105 ) ) ;
#219 = EDGE_CURVE ( 'NONE', #237, #74, #56, .T. ) ;
#220 = AXIS2_PLACEMENT_3D ( 'NONE', #255, #241, #28 ) ;
#221 = CALENDAR_DATE ( 2022, 7, 7 ) ;
#222 = ADVANCED_FACE ( 'NONE', ( #249 ), #41, .F. ) ;
#223 = CIRCLE ( 'NONE', #125, 10.20000000000000107 ) ;
#224 = DESIGN_CONTEXT ( 'detailed design', #103, 'design' ) ;
#225 = CARTESIAN_POINT ( 'NONE',  ( 0.000000000000000000, 0.000000000000000000, 8.000000000000000000 ) ) ;
#226 = CARTESIAN_POINT ( 'NONE',  ( 0.000000000000000000, 0.000000000000000000, 0.000000000000000000 ) ) ;
#227 = EDGE_CURVE ( 'NONE', #18, #89, #31, .T. ) ;
#228 = LINE ( 'NONE', #12, #130 ) ;
#229 = AXIS2_PLACEMENT_3D ( 'NONE', #13, #165, #14 ) ;
#230 = LOCAL_TIME ( 14, 18, 26.00000000000000000, #145 ) ;
#231 = CARTESIAN_POINT ( 'NONE',  ( 0.000000000000000000, 0.000000000000000000, 8.200000000000013500 ) ) ;
#232 = ORIENTED_EDGE ( 'NONE', *, *, #77, .F. ) ;
#233 = CARTESIAN_POINT ( 'NONE',  ( 10.00000000000000000, 1.224646799147353256E-15, 168.0000000000000000 ) ) ;
#234 = ORIENTED_EDGE ( 'NONE', *, *, #11, .F. ) ;
#235 = APPROVAL ( #303, 'NEURÈENÝ' ) ;
#236 = CARTESIAN_POINT ( 'NONE',  ( 0.000000000000000000, 0.000000000000000000, 0.000000000000000000 ) ) ;
#237 = VERTEX_POINT ( 'NONE', #273 ) ;
#238 = DATE_AND_TIME ( #150, #230 ) ;
#239 = VERTEX_POINT ( 'NONE', #200 ) ;
#240 = PERSON_AND_ORGANIZATION ( #274, #206 ) ;
#241 = DIRECTION ( 'NONE',  ( 1.224646799147353207E-16, 1.000000000000000000, -0.000000000000000000 ) ) ;
#242 = CYLINDRICAL_SURFACE ( 'NONE', #245, 13.00000000000000178 ) ;
#243 = CIRCLE ( 'NONE', #99, 13.00000000000000178 ) ;
#244 = CARTESIAN_POINT ( 'NONE',  ( -10.00000000000000000, 0.000000000000000000, 168.0000000000000000 ) ) ;
#245 = AXIS2_PLACEMENT_3D ( 'NONE', #258, #93, #33 ) ;
#246 = EDGE_CURVE ( 'NONE', #116, #100, #7, .T. ) ;
#247 = CC_DESIGN_PERSON_AND_ORGANIZATION_ASSIGNMENT ( #260, #69, ( #290 ) ) ;
#248 = CARTESIAN_POINT ( 'NONE',  ( 0.000000000000000000, 0.000000000000000000, 8.200000000000013500 ) ) ;
#249 = FACE_OUTER_BOUND ( 'NONE', #5, .T. ) ;
#250 = CARTESIAN_POINT ( 'NONE',  ( 0.000000000000000000, 0.000000000000000000, 8.000000000000000000 ) ) ;
#251 = CARTESIAN_POINT ( 'NONE',  ( 0.000000000000000000, 0.000000000000000000, 0.000000000000000000 ) ) ;
#252 = DIRECTION ( 'NONE',  ( -0.000000000000000000, -0.000000000000000000, -1.000000000000000000 ) ) ;
#253 = APPLICATION_PROTOCOL_DEFINITION ( 'international standard', 'config_control_design', 1994, #103 ) ;
#254 =( NAMED_UNIT ( * ) PLANE_ANGLE_UNIT ( ) SI_UNIT ( $, .RADIAN. ) );
#255 = CARTESIAN_POINT ( 'NONE',  ( -10.20000000000000107, 1.249139735130300365E-15, 8.200000000000013500 ) ) ;
#256 = ORIENTED_EDGE ( 'NONE', *, *, #275, .T. ) ;
#257 = CALENDAR_DATE ( 2022, 7, 7 ) ;
#258 = CARTESIAN_POINT ( 'NONE',  ( 0.000000000000000000, 0.000000000000000000, 8.000000000000000000 ) ) ;
#259 = EDGE_CURVE ( 'NONE', #100, #68, #223, .T. ) ;
#260 = PERSON_AND_ORGANIZATION ( #274, #206 ) ;
#261 = VERTEX_POINT ( 'NONE', #233 ) ;
#262 = DIRECTION ( 'NONE',  ( 0.000000000000000000, 0.000000000000000000, 1.000000000000000000 ) ) ;
#263 = AXIS2_PLACEMENT_3D ( 'NONE', #231, #158, #84 ) ;
#264 = CIRCLE ( 'NONE', #157, 13.00000000000000178 ) ;
#265 = ADVANCED_FACE ( 'NONE', ( #109 ), #289, .F. ) ;
#266 = PERSON_AND_ORGANIZATION ( #274, #206 ) ;
#267 = SHAPE_DEFINITION_REPRESENTATION ( #81, #32 ) ;
#268 = DIRECTION ( 'NONE',  ( 1.000000000000000000, 0.000000000000000000, -0.000000000000000000 ) ) ;
#269 = AXIS2_PLACEMENT_3D ( 'NONE', #236, #214, #21 ) ;
#270 = DIRECTION ( 'NONE',  ( -0.000000000000000000, -0.000000000000000000, -1.000000000000000000 ) ) ;
#271 = FACE_BOUND ( 'NONE', #187, .T. ) ;
#272 = EDGE_LOOP ( 'NONE', ( #26, #279, #118, #172 ) ) ;
#273 = CARTESIAN_POINT ( 'NONE',  ( 13.00000000000000178, 1.592040838891559293E-15, 8.000000000000000000 ) ) ;
#274 = PERSON ( 'NEURÈENÝ', 'NEURÈENÝ', 'NEURÈENÝ', ('NEURÈENÝ'), ('NEURÈENÝ'), ('NEURÈENÝ') ) ;
#275 = EDGE_CURVE ( 'NONE', #261, #239, #286, .T. ) ;
#276 = ORIENTED_EDGE ( 'NONE', *, *, #57, .T. ) ;
#277 = PERSON_AND_ORGANIZATION ( #274, #206 ) ;
#278 = CYLINDRICAL_SURFACE ( 'NONE', #3, 10.00000000000000000 ) ;
#279 = ORIENTED_EDGE ( 'NONE', *, *, #30, .F. ) ;
#280 = ORIENTED_EDGE ( 'NONE', *, *, #227, .T. ) ;
#281 = PERSON_AND_ORGANIZATION_ROLE ( 'creator' ) ;
#282 = CARTESIAN_POINT ( 'NONE',  ( 13.00000000000000178, 1.592040838891559293E-15, 0.000000000000000000 ) ) ;
#283 = FACE_OUTER_BOUND ( 'NONE', #272, .T. ) ;
#284 = PRODUCT_DEFINITION ( 'NEZNÁMÝ', '', #290, #224 ) ;
#285 = CARTESIAN_POINT ( 'NONE',  ( 0.000000000000000000, 0.000000000000000000, 8.200000000000013500 ) ) ;
#286 = CIRCLE ( 'NONE', #38, 10.00000000000000000 ) ;
#287 = PRODUCT_RELATED_PRODUCT_CATEGORY ( 'detail', '', ( #34 ) ) ;
#288 = APPROVAL_DATE_TIME ( #9, #211 ) ;
#289 = TOROIDAL_SURFACE ( 'NONE', #263, 10.20000000000000107, 0.2000000000000000111 ) ;
#290 = PRODUCT_DEFINITION_FORMATION_WITH_SPECIFIED_SOURCE ( 'LIBOVOLNÝ', '', #34, .NOT_KNOWN. ) ;
#291 = DIRECTION ( 'NONE',  ( 1.000000000000000000, 0.000000000000000000, 0.000000000000000000 ) ) ;
#292 = EDGE_CURVE ( 'NONE', #152, #116, #102, .T. ) ;
#293 = APPLICATION_CONTEXT ( 'configuration controlled 3d designs of mechanical parts and assemblies' ) ;
#294 = DIRECTION ( 'NONE',  ( 1.000000000000000000, 0.000000000000000000, 0.000000000000000000 ) ) ;
#295 = CIRCLE ( 'NONE', #35, 10.20000000000000107 ) ;
#296 = DIRECTION ( 'NONE',  ( -0.000000000000000000, -0.000000000000000000, -1.000000000000000000 ) ) ;
#297 = EDGE_LOOP ( 'NONE', ( #49, #299, #140, #305 ) ) ;
#298 = DIRECTION ( 'NONE',  ( 0.000000000000000000, 0.000000000000000000, 1.000000000000000000 ) ) ;
#299 = ORIENTED_EDGE ( 'NONE', *, *, #121, .T. ) ;
#300 = DIRECTION ( 'NONE',  ( 0.000000000000000000, 0.000000000000000000, 1.000000000000000000 ) ) ;
#301 = APPROVAL ( #149, 'NEURÈENÝ' ) ;
#302 = APPROVAL_PERSON_ORGANIZATION ( #50, #301, #27 ) ;
#303 = APPROVAL_STATUS ( 'not_yet_approved' ) ;
#304 = DIRECTION ( 'NONE',  ( 1.000000000000000000, 0.000000000000000000, 0.000000000000000000 ) ) ;
#305 = ORIENTED_EDGE ( 'NONE', *, *, #8, .F. ) ;
#306 = APPROVAL_ROLE ( '' ) ;
#307 = DIRECTION ( 'NONE',  ( -0.000000000000000000, -0.000000000000000000, -1.000000000000000000 ) ) ;
ENDSEC;
END-ISO-10303-21;
