ISO-10303-21;
HEADER;
FILE_DESCRIPTION (( 'STEP AP203' ),
    '1' );
FILE_NAME ('5b75.STEP',
    '2022-07-07T12:19:36',
    ( '' ),
    ( '' ),
    'SwSTEP 2.0',
    'SolidWorks 2019',
    '' );
FILE_SCHEMA (( 'CONFIG_CONTROL_DESIGN' ));
ENDSEC;

DATA;
#1 = PERSON_AND_ORGANIZATION_ROLE ( 'creator' ) ;
#2 = ORIENTED_EDGE ( 'NONE', *, *, #148, .F. ) ;
#3 = SHAPE_DEFINITION_REPRESENTATION ( #159, #116 ) ;
#4 = LOCAL_TIME ( 14, 19, 36.00000000000000000, #170 ) ;
#5 = ORIENTED_EDGE ( 'NONE', *, *, #118, .T. ) ;
#6 = DIRECTION ( 'NONE',  ( -1.000000000000000000, 0.000000000000000000, 0.000000000000000000 ) ) ;
#7 = APPROVAL_DATE_TIME ( #24, #138 ) ;
#8 = DIRECTION ( 'NONE',  ( 0.000000000000000000, 0.000000000000000000, 1.000000000000000000 ) ) ;
#9 = FACE_OUTER_BOUND ( 'NONE', #263, .T. ) ;
#10 = ORGANIZATION ( 'NEURÈENÝ', 'NEURÈENÝ', '' ) ;
#11 = EDGE_CURVE ( 'NONE', #143, #146, #266, .T. ) ;
#12 = DIRECTION ( 'NONE',  ( 0.000000000000000000, 0.000000000000000000, 1.000000000000000000 ) ) ;
#13 = DIRECTION ( 'NONE',  ( 0.000000000000000000, 0.000000000000000000, 1.000000000000000000 ) ) ;
#14 = AXIS2_PLACEMENT_3D ( 'NONE', #264, #53, #121 ) ;
#15 = DIRECTION ( 'NONE',  ( 1.000000000000000000, 0.000000000000000000, 0.000000000000000000 ) ) ;
#16 = TOROIDAL_SURFACE ( 'NONE', #137, 9.199999999999999289, 0.2000000000000000111 ) ;
#17 = FACE_OUTER_BOUND ( 'NONE', #120, .T. ) ;
#18 = EDGE_CURVE ( 'NONE', #169, #30, #282, .T. ) ;
#19 = CARTESIAN_POINT ( 'NONE',  ( 0.000000000000000000, 0.000000000000000000, 7.000000000000000000 ) ) ;
#20 = AXIS2_PLACEMENT_3D ( 'NONE', #176, #200, #63 ) ;
#21 = CARTESIAN_POINT ( 'NONE',  ( 0.000000000000000000, 0.000000000000000000, 167.0000000000000000 ) ) ;
#22 = PRODUCT_DEFINITION_FORMATION_WITH_SPECIFIED_SOURCE ( 'LIBOVOLNÝ', '', #26, .NOT_KNOWN. ) ;
#23 = APPROVAL ( #195, 'NEURÈENÝ' ) ;
#24 = DATE_AND_TIME ( #198, #98 ) ;
#25 = CARTESIAN_POINT ( 'NONE',  ( 0.000000000000000000, 0.000000000000000000, 7.200000000000011724 ) ) ;
#26 = PRODUCT ( '5b75', '5b75', '', ( #181 ) ) ;
#27 = AXIS2_PLACEMENT_3D ( 'NONE', #129, #85, #224 ) ;
#28 = ORIENTED_EDGE ( 'NONE', *, *, #38, .F. ) ;
#29 = ORIENTED_EDGE ( 'NONE', *, *, #295, .T. ) ;
#30 = VERTEX_POINT ( 'NONE', #290 ) ;
#31 = EDGE_CURVE ( 'NONE', #188, #239, #219, .T. ) ;
#32 = DIRECTION ( 'NONE',  ( 1.000000000000000000, 0.000000000000000000, -0.000000000000000000 ) ) ;
#33 = PLANE ( 'NONE',  #135 ) ;
#34 = EDGE_CURVE ( 'NONE', #146, #143, #302, .T. ) ;
#35 = APPROVAL_PERSON_ORGANIZATION ( #267, #138, #56 ) ;
#36 = DIRECTION ( 'NONE',  ( 0.000000000000000000, 0.000000000000000000, 1.000000000000000000 ) ) ;
#37 = DIRECTION ( 'NONE',  ( -0.000000000000000000, -0.000000000000000000, -1.000000000000000000 ) ) ;
#38 = EDGE_CURVE ( 'NONE', #167, #188, #233, .T. ) ;
#39 = CARTESIAN_POINT ( 'NONE',  ( 12.00000000000000178, 1.469576158976824144E-15, 7.000000000000000000 ) ) ;
#40 = CIRCLE ( 'NONE', #78, 12.00000000000000178 ) ;
#41 = UNCERTAINTY_MEASURE_WITH_UNIT (LENGTH_MEASURE( 1.000000000000000082E-05 ), #89, 'distance_accuracy_value', 'NONE');
#42 = FACE_OUTER_BOUND ( 'NONE', #214, .T. ) ;
#43 = DIRECTION ( 'NONE',  ( -0.000000000000000000, -0.000000000000000000, -1.000000000000000000 ) ) ;
#44 = ADVANCED_FACE ( 'NONE', ( #126 ), #33, .F. ) ;
#45 = PLANE ( 'NONE',  #152 ) ;
#46 = ORIENTED_EDGE ( 'NONE', *, *, #175, .T. ) ;
#47 = VECTOR ( 'NONE', #288, 1000.000000000000000 ) ;
#48 = DATE_AND_TIME ( #165, #4 ) ;
#49 = ORIENTED_EDGE ( 'NONE', *, *, #292, .F. ) ;
#50 = APPROVAL_PERSON_ORGANIZATION ( #191, #54, #237 ) ;
#51 = APPROVAL_STATUS ( 'not_yet_approved' ) ;
#52 = ORIENTED_EDGE ( 'NONE', *, *, #295, .F. ) ;
#53 = DIRECTION ( 'NONE',  ( 0.000000000000000000, 0.000000000000000000, 1.000000000000000000 ) ) ;
#54 = APPROVAL ( #51, 'NEURÈENÝ' ) ;
#55 = ORIENTED_EDGE ( 'NONE', *, *, #206, .F. ) ;
#56 = APPROVAL_ROLE ( '' ) ;
#57 = APPLICATION_CONTEXT ( 'configuration controlled 3d designs of mechanical parts and assemblies' ) ;
#58 = DIRECTION ( 'NONE',  ( -0.000000000000000000, -0.000000000000000000, -1.000000000000000000 ) ) ;
#59 = CARTESIAN_POINT ( 'NONE',  ( 12.00000000000000178, 1.469576158976824144E-15, 7.000000000000000000 ) ) ;
#60 = FACE_OUTER_BOUND ( 'NONE', #69, .T. ) ;
#61 = CIRCLE ( 'NONE', #93, 9.199999999999999289 ) ;
#62 = DIRECTION ( 'NONE',  ( -1.000000000000000000, 0.000000000000000000, 0.000000000000000000 ) ) ;
#63 = DIRECTION ( 'NONE',  ( 1.000000000000000000, 0.000000000000000000, 0.000000000000000000 ) ) ;
#64 = CC_DESIGN_PERSON_AND_ORGANIZATION_ASSIGNMENT ( #234, #1, ( #22 ) ) ;
#65 = DIRECTION ( 'NONE',  ( -1.000000000000000000, 1.224646799147353207E-16, 0.000000000000000000 ) ) ;
#66 = AXIS2_PLACEMENT_3D ( 'NONE', #150, #84, #65 ) ;
#67 = DATE_AND_TIME ( #284, #183 ) ;
#68 = ORIENTED_EDGE ( 'NONE', *, *, #162, .T. ) ;
#69 = EDGE_LOOP ( 'NONE', ( #97, #5, #113, #192 ) ) ;
#70 = APPROVAL_DATE_TIME ( #67, #23 ) ;
#71 = ORIENTED_EDGE ( 'NONE', *, *, #148, .T. ) ;
#72 = CC_DESIGN_SECURITY_CLASSIFICATION ( #262, ( #22 ) ) ;
#73 = PERSON_AND_ORGANIZATION ( #283, #10 ) ;
#74 = EDGE_CURVE ( 'NONE', #167, #213, #177, .T. ) ;
#75 = ORIENTED_EDGE ( 'NONE', *, *, #185, .T. ) ;
#76 = VERTEX_POINT ( 'NONE', #101 ) ;
#77 = CARTESIAN_POINT ( 'NONE',  ( -12.00000000000000178, 0.000000000000000000, 0.000000000000000000 ) ) ;
#78 = AXIS2_PLACEMENT_3D ( 'NONE', #124, #8, #293 ) ;
#79 = CARTESIAN_POINT ( 'NONE',  ( 0.000000000000000000, 0.000000000000000000, 7.000000000000000000 ) ) ;
#80 = CARTESIAN_POINT ( 'NONE',  ( 12.00000000000000178, 1.469576158976824144E-15, 0.000000000000000000 ) ) ;
#81 = DIRECTION ( 'NONE',  ( 1.000000000000000000, 0.000000000000000000, 0.000000000000000000 ) ) ;
#82 = AXIS2_PLACEMENT_3D ( 'NONE', #243, #173, #222 ) ;
#83 = CARTESIAN_POINT ( 'NONE',  ( 0.000000000000000000, 0.000000000000000000, 167.0000000000000000 ) ) ;
#84 = DIRECTION ( 'NONE',  ( 1.224646799147353207E-16, 1.000000000000000000, -0.000000000000000000 ) ) ;
#85 = DIRECTION ( 'NONE',  ( 0.000000000000000000, 0.000000000000000000, 1.000000000000000000 ) ) ;
#86 = ADVANCED_FACE ( 'NONE', ( #9 ), #270, .T. ) ;
#87 = DIRECTION ( 'NONE',  ( 0.000000000000000000, 0.000000000000000000, 1.000000000000000000 ) ) ;
#88 = CC_DESIGN_APPROVAL ( #54, ( #22 ) ) ;
#89 =( LENGTH_UNIT ( ) NAMED_UNIT ( * ) SI_UNIT ( .MILLI., .METRE. ) );
#90 = FACE_OUTER_BOUND ( 'NONE', #306, .T. ) ;
#91 = COORDINATED_UNIVERSAL_TIME_OFFSET ( 1, 0, .AHEAD. ) ;
#92 = ORIENTED_EDGE ( 'NONE', *, *, #185, .F. ) ;
#93 = AXIS2_PLACEMENT_3D ( 'NONE', #79, #153, #202 ) ;
#94 = DATE_AND_TIME ( #278, #298 ) ;
#95 = ORIENTED_EDGE ( 'NONE', *, *, #127, .F. ) ;
#96 = ADVANCED_FACE ( 'NONE', ( #221 ), #245, .T. ) ;
#97 = ORIENTED_EDGE ( 'NONE', *, *, #175, .F. ) ;
#98 = LOCAL_TIME ( 14, 19, 36.00000000000000000, #122 ) ;
#99 = PERSON_AND_ORGANIZATION ( #283, #10 ) ;
#100 = ORIENTED_EDGE ( 'NONE', *, *, #127, .T. ) ;
#101 = CARTESIAN_POINT ( 'NONE',  ( -12.00000000000000178, 0.000000000000000000, 7.000000000000000000 ) ) ;
#102 = DIRECTION ( 'NONE',  ( 1.000000000000000000, 0.000000000000000000, 0.000000000000000000 ) ) ;
#103 = CARTESIAN_POINT ( 'NONE',  ( 0.000000000000000000, 0.000000000000000000, 167.0000000000000000 ) ) ;
#104 = CARTESIAN_POINT ( 'NONE',  ( 0.000000000000000000, 0.000000000000000000, 7.000000000000000000 ) ) ;
#105 = CC_DESIGN_DATE_AND_TIME_ASSIGNMENT ( #94, #286, ( #231 ) ) ;
#106 = DIRECTION ( 'NONE',  ( 1.000000000000000000, 0.000000000000000000, 0.000000000000000000 ) ) ;
#107 = AXIS2_PLACEMENT_3D ( 'NONE', #158, #132, #299 ) ;
#108 = DIRECTION ( 'NONE',  ( 0.000000000000000000, -1.000000000000000000, 0.000000000000000000 ) ) ;
#109 = DIRECTION ( 'NONE',  ( 0.000000000000000000, 0.000000000000000000, 1.000000000000000000 ) ) ;
#110 = PERSON_AND_ORGANIZATION ( #283, #10 ) ;
#111 = CC_DESIGN_APPROVAL ( #23, ( #231 ) ) ;
#112 = DIRECTION ( 'NONE',  ( 0.000000000000000000, 0.000000000000000000, 1.000000000000000000 ) ) ;
#113 = ORIENTED_EDGE ( 'NONE', *, *, #34, .T. ) ;
#114 = AXIS2_PLACEMENT_3D ( 'NONE', #25, #163, #251 ) ;
#115 = DATE_TIME_ROLE ( 'classification_date' ) ;
#116 = ADVANCED_BREP_SHAPE_REPRESENTATION ( '5b75', ( #240, #235 ), #123 ) ;
#117 = ORIENTED_EDGE ( 'NONE', *, *, #74, .T. ) ;
#118 = EDGE_CURVE ( 'NONE', #265, #146, #149, .T. ) ;
#119 = APPROVAL_DATE_TIME ( #48, #54 ) ;
#120 = EDGE_LOOP ( 'NONE', ( #29, #190 ) ) ;
#121 = DIRECTION ( 'NONE',  ( 1.000000000000000000, 0.000000000000000000, 0.000000000000000000 ) ) ;
#122 = COORDINATED_UNIVERSAL_TIME_OFFSET ( 1, 0, .AHEAD. ) ;
#123 =( GEOMETRIC_REPRESENTATION_CONTEXT ( 3 ) GLOBAL_UNCERTAINTY_ASSIGNED_CONTEXT ( ( #41 ) ) GLOBAL_UNIT_ASSIGNED_CONTEXT ( ( #89, #160, #205 ) ) REPRESENTATION_CONTEXT ( 'NONE', 'WORKASPACE' ) );
#124 = CARTESIAN_POINT ( 'NONE',  ( 0.000000000000000000, 0.000000000000000000, 7.000000000000000000 ) ) ;
#125 = CARTESIAN_POINT ( 'NONE',  ( 0.000000000000000000, 0.000000000000000000, 0.000000000000000000 ) ) ;
#126 = FACE_OUTER_BOUND ( 'NONE', #304, .T. ) ;
#127 = EDGE_CURVE ( 'NONE', #239, #213, #246, .T. ) ;
#128 = FACE_OUTER_BOUND ( 'NONE', #139, .T. ) ;
#129 = CARTESIAN_POINT ( 'NONE',  ( 0.000000000000000000, 0.000000000000000000, 7.200000000000011724 ) ) ;
#130 = DIRECTION ( 'NONE',  ( -1.000000000000000000, 0.000000000000000000, 0.000000000000000000 ) ) ;
#131 = APPLICATION_CONTEXT ( 'configuration controlled 3d designs of mechanical parts and assemblies' ) ;
#132 = DIRECTION ( 'NONE',  ( 0.000000000000000000, 0.000000000000000000, 1.000000000000000000 ) ) ;
#133 = CC_DESIGN_DATE_AND_TIME_ASSIGNMENT ( #230, #115, ( #262 ) ) ;
#134 = DESIGN_CONTEXT ( 'detailed design', #131, 'design' ) ;
#135 = AXIS2_PLACEMENT_3D ( 'NONE', #125, #36, #32 ) ;
#136 = CARTESIAN_POINT ( 'NONE',  ( 0.000000000000000000, 0.000000000000000000, 167.0000000000000000 ) ) ;
#137 = AXIS2_PLACEMENT_3D ( 'NONE', #218, #12, #102 ) ;
#138 = APPROVAL ( #147, 'NEURÈENÝ' ) ;
#139 = EDGE_LOOP ( 'NONE', ( #95, #75, #215, #49 ) ) ;
#140 = EDGE_CURVE ( 'NONE', #30, #169, #61, .T. ) ;
#141 = ORIENTED_EDGE ( 'NONE', *, *, #31, .F. ) ;
#142 = AXIS2_PLACEMENT_3D ( 'NONE', #19, #43, #130 ) ;
#143 = VERTEX_POINT ( 'NONE', #77 ) ;
#144 = EDGE_LOOP ( 'NONE', ( #71, #46 ) ) ;
#145 = CLOSED_SHELL ( 'NONE', ( #172, #86, #156, #280, #244, #44, #96, #289, #225 ) ) ;
#146 = VERTEX_POINT ( 'NONE', #80 ) ;
#147 = APPROVAL_STATUS ( 'not_yet_approved' ) ;
#148 = EDGE_CURVE ( 'NONE', #76, #265, #174, .T. ) ;
#149 = LINE ( 'NONE', #59, #208 ) ;
#150 = CARTESIAN_POINT ( 'NONE',  ( -9.199999999999999289, 1.126675055215564822E-15, 7.200000000000011724 ) ) ;
#151 = LINE ( 'NONE', #247, #242 ) ;
#152 = AXIS2_PLACEMENT_3D ( 'NONE', #136, #109, #228 ) ;
#153 = DIRECTION ( 'NONE',  ( -0.000000000000000000, -0.000000000000000000, -1.000000000000000000 ) ) ;
#154 = DIRECTION ( 'NONE',  ( -0.000000000000000000, -0.000000000000000000, -1.000000000000000000 ) ) ;
#155 = CARTESIAN_POINT ( 'NONE',  ( -9.000000000000000000, 0.000000000000000000, 167.0000000000000000 ) ) ;
#156 = ADVANCED_FACE ( 'NONE', ( #60 ), #248, .T. ) ;
#157 = CIRCLE ( 'NONE', #255, 9.000000000000000000 ) ;
#158 = CARTESIAN_POINT ( 'NONE',  ( 0.000000000000000000, 0.000000000000000000, 7.000000000000000000 ) ) ;
#159 = PRODUCT_DEFINITION_SHAPE ( 'NONE', 'NONE',  #231 ) ;
#160 =( NAMED_UNIT ( * ) PLANE_ANGLE_UNIT ( ) SI_UNIT ( $, .RADIAN. ) );
#161 = AXIS2_PLACEMENT_3D ( 'NONE', #83, #199, #179 ) ;
#162 = EDGE_CURVE ( 'NONE', #76, #143, #151, .T. ) ;
#163 = DIRECTION ( 'NONE',  ( 0.000000000000000000, 0.000000000000000000, 1.000000000000000000 ) ) ;
#164 = ORIENTED_EDGE ( 'NONE', *, *, #140, .T. ) ;
#165 = CALENDAR_DATE ( 2022, 7, 7 ) ;
#166 = ORIENTED_EDGE ( 'NONE', *, *, #18, .F. ) ;
#167 = VERTEX_POINT ( 'NONE', #275 ) ;
#168 = PERSON_AND_ORGANIZATION_ROLE ( 'design_supplier' ) ;
#169 = VERTEX_POINT ( 'NONE', #269 ) ;
#170 = COORDINATED_UNIVERSAL_TIME_OFFSET ( 1, 0, .AHEAD. ) ;
#171 = DIRECTION ( 'NONE',  ( -0.000000000000000000, -0.000000000000000000, -1.000000000000000000 ) ) ;
#172 = ADVANCED_FACE ( 'NONE', ( #128 ), #16, .F. ) ;
#173 = DIRECTION ( 'NONE',  ( 0.000000000000000000, 0.000000000000000000, 1.000000000000000000 ) ) ;
#174 = CIRCLE ( 'NONE', #82, 12.00000000000000178 ) ;
#175 = EDGE_CURVE ( 'NONE', #265, #76, #40, .T. ) ;
#176 = CARTESIAN_POINT ( 'NONE',  ( 0.000000000000000000, 0.000000000000000000, 7.200000000000011724 ) ) ;
#177 = LINE ( 'NONE', #272, #47 ) ;
#178 = TOROIDAL_SURFACE ( 'NONE', #27, 9.199999999999999289, 0.2000000000000000111 ) ;
#179 = DIRECTION ( 'NONE',  ( 1.000000000000000000, 0.000000000000000000, 0.000000000000000000 ) ) ;
#180 = PLANE ( 'NONE',  #107 ) ;
#181 = MECHANICAL_CONTEXT ( 'NONE', #57, 'mechanical' ) ;
#182 = AXIS2_PLACEMENT_3D ( 'NONE', #216, #171, #81 ) ;
#183 = LOCAL_TIME ( 14, 19, 36.00000000000000000, #305 ) ;
#184 = DIRECTION ( 'NONE',  ( 1.000000000000000000, 0.000000000000000000, 0.000000000000000000 ) ) ;
#185 = EDGE_CURVE ( 'NONE', #239, #169, #212, .T. ) ;
#186 = CYLINDRICAL_SURFACE ( 'NONE', #142, 12.00000000000000178 ) ;
#187 = CALENDAR_DATE ( 2022, 7, 7 ) ;
#188 = VERTEX_POINT ( 'NONE', #155 ) ;
#189 = PERSON_AND_ORGANIZATION_ROLE ( 'creator' ) ;
#190 = ORIENTED_EDGE ( 'NONE', *, *, #38, .T. ) ;
#191 = PERSON_AND_ORGANIZATION ( #283, #10 ) ;
#192 = ORIENTED_EDGE ( 'NONE', *, *, #162, .F. ) ;
#193 = AXIS2_PLACEMENT_3D ( 'NONE', #103, #217, #62 ) ;
#194 = AXIS2_PLACEMENT_3D ( 'NONE', #104, #268, #203 ) ;
#195 = APPROVAL_STATUS ( 'not_yet_approved' ) ;
#196 = CC_DESIGN_PERSON_AND_ORGANIZATION_ASSIGNMENT ( #229, #303, ( #262 ) ) ;
#197 = ORIENTED_EDGE ( 'NONE', *, *, #11, .F. ) ;
#198 = CALENDAR_DATE ( 2022, 7, 7 ) ;
#199 = DIRECTION ( 'NONE',  ( 0.000000000000000000, 0.000000000000000000, 1.000000000000000000 ) ) ;
#200 = DIRECTION ( 'NONE',  ( 0.000000000000000000, 0.000000000000000000, 1.000000000000000000 ) ) ;
#201 = AXIS2_PLACEMENT_3D ( 'NONE', #276, #108, #223 ) ;
#202 = DIRECTION ( 'NONE',  ( 1.000000000000000000, 0.000000000000000000, 0.000000000000000000 ) ) ;
#203 = DIRECTION ( 'NONE',  ( -1.000000000000000000, 0.000000000000000000, 0.000000000000000000 ) ) ;
#204 = CARTESIAN_POINT ( 'NONE',  ( 0.000000000000000000, 0.000000000000000000, 167.0000000000000000 ) ) ;
#205 =( NAMED_UNIT ( * ) SI_UNIT ( $, .STERADIAN. ) SOLID_ANGLE_UNIT ( ) );
#206 = EDGE_CURVE ( 'NONE', #213, #239, #252, .T. ) ;
#207 = FACE_BOUND ( 'NONE', #307, .T. ) ;
#208 = VECTOR ( 'NONE', #154, 1000.000000000000000 ) ;
#209 = CC_DESIGN_APPROVAL ( #138, ( #262 ) ) ;
#210 = APPLICATION_PROTOCOL_DEFINITION ( 'international standard', 'config_control_design', 1994, #131 ) ;
#211 = APPLICATION_PROTOCOL_DEFINITION ( 'international standard', 'config_control_design', 1994, #57 ) ;
#212 = CIRCLE ( 'NONE', #66, 0.2000000000000005107 ) ;
#213 = VERTEX_POINT ( 'NONE', #253 ) ;
#214 = EDGE_LOOP ( 'NONE', ( #92, #55, #281, #166 ) ) ;
#215 = ORIENTED_EDGE ( 'NONE', *, *, #140, .F. ) ;
#216 = CARTESIAN_POINT ( 'NONE',  ( 0.000000000000000000, 0.000000000000000000, 7.000000000000000000 ) ) ;
#217 = DIRECTION ( 'NONE',  ( -0.000000000000000000, -0.000000000000000000, -1.000000000000000000 ) ) ;
#218 = CARTESIAN_POINT ( 'NONE',  ( 0.000000000000000000, 0.000000000000000000, 7.200000000000011724 ) ) ;
#219 = LINE ( 'NONE', #291, #271 ) ;
#220 = CIRCLE ( 'NONE', #201, 0.1999999999999996503 ) ;
#221 = FACE_OUTER_BOUND ( 'NONE', #260, .T. ) ;
#222 = DIRECTION ( 'NONE',  ( 1.000000000000000000, 0.000000000000000000, 0.000000000000000000 ) ) ;
#223 = DIRECTION ( 'NONE',  ( 0.000000000000000000, 0.000000000000000000, -1.000000000000000000 ) ) ;
#224 = DIRECTION ( 'NONE',  ( 1.000000000000000000, 0.000000000000000000, 0.000000000000000000 ) ) ;
#225 = ADVANCED_FACE ( 'NONE', ( #42 ), #178, .F. ) ;
#226 = AXIS2_PLACEMENT_3D ( 'NONE', #250, #13, #106 ) ;
#227 = LOCAL_TIME ( 14, 19, 36.00000000000000000, #91 ) ;
#228 = DIRECTION ( 'NONE',  ( 1.000000000000000000, 0.000000000000000000, -0.000000000000000000 ) ) ;
#229 = PERSON_AND_ORGANIZATION ( #283, #10 ) ;
#230 = DATE_AND_TIME ( #187, #227 ) ;
#231 = PRODUCT_DEFINITION ( 'NEZNÁMÝ', '', #22, #134 ) ;
#232 = ORIENTED_EDGE ( 'NONE', *, *, #34, .F. ) ;
#233 = CIRCLE ( 'NONE', #161, 9.000000000000000000 ) ;
#234 = PERSON_AND_ORGANIZATION ( #283, #10 ) ;
#235 = AXIS2_PLACEMENT_3D ( 'NONE', #297, #87, #184 ) ;
#236 = ORIENTED_EDGE ( 'NONE', *, *, #74, .F. ) ;
#237 = APPROVAL_ROLE ( '' ) ;
#238 = APPROVAL_ROLE ( '' ) ;
#239 = VERTEX_POINT ( 'NONE', #254 ) ;
#240 = MANIFOLD_SOLID_BREP ( 'Zaoblit1', #145 ) ;
#241 = ORIENTED_EDGE ( 'NONE', *, *, #206, .T. ) ;
#242 = VECTOR ( 'NONE', #58, 1000.000000000000000 ) ;
#243 = CARTESIAN_POINT ( 'NONE',  ( 0.000000000000000000, 0.000000000000000000, 7.000000000000000000 ) ) ;
#244 = ADVANCED_FACE ( 'NONE', ( #207, #256 ), #180, .T. ) ;
#245 = CYLINDRICAL_SURFACE ( 'NONE', #193, 9.000000000000000000 ) ;
#246 = CIRCLE ( 'NONE', #20, 9.000000000000000000 ) ;
#247 = CARTESIAN_POINT ( 'NONE',  ( -12.00000000000000178, 0.000000000000000000, 7.000000000000000000 ) ) ;
#248 = CYLINDRICAL_SURFACE ( 'NONE', #194, 12.00000000000000178 ) ;
#249 = CC_DESIGN_PERSON_AND_ORGANIZATION_ASSIGNMENT ( #73, #168, ( #22 ) ) ;
#250 = CARTESIAN_POINT ( 'NONE',  ( 0.000000000000000000, 0.000000000000000000, 0.000000000000000000 ) ) ;
#251 = DIRECTION ( 'NONE',  ( 1.000000000000000000, 0.000000000000000000, 0.000000000000000000 ) ) ;
#252 = CIRCLE ( 'NONE', #114, 9.000000000000000000 ) ;
#253 = CARTESIAN_POINT ( 'NONE',  ( 9.000000000000000000, 1.102182119232617714E-15, 7.200000000000011724 ) ) ;
#254 = CARTESIAN_POINT ( 'NONE',  ( -9.000000000000000000, 0.000000000000000000, 7.200000000000011724 ) ) ;
#255 = AXIS2_PLACEMENT_3D ( 'NONE', #21, #112, #15 ) ;
#256 = FACE_OUTER_BOUND ( 'NONE', #144, .T. ) ;
#257 = SECURITY_CLASSIFICATION_LEVEL ( 'unclassified' ) ;
#258 = ORIENTED_EDGE ( 'NONE', *, *, #31, .T. ) ;
#259 = COORDINATED_UNIVERSAL_TIME_OFFSET ( 1, 0, .AHEAD. ) ;
#260 = EDGE_LOOP ( 'NONE', ( #236, #52, #258, #100 ) ) ;
#261 = PERSON_AND_ORGANIZATION ( #283, #10 ) ;
#262 = SECURITY_CLASSIFICATION ( '', '', #257 ) ;
#263 = EDGE_LOOP ( 'NONE', ( #28, #117, #241, #141 ) ) ;
#264 = CARTESIAN_POINT ( 'NONE',  ( 0.000000000000000000, 0.000000000000000000, 0.000000000000000000 ) ) ;
#265 = VERTEX_POINT ( 'NONE', #39 ) ;
#266 = CIRCLE ( 'NONE', #14, 12.00000000000000178 ) ;
#267 = PERSON_AND_ORGANIZATION ( #283, #10 ) ;
#268 = DIRECTION ( 'NONE',  ( -0.000000000000000000, -0.000000000000000000, -1.000000000000000000 ) ) ;
#269 = CARTESIAN_POINT ( 'NONE',  ( -9.199999999999999289, 1.126675055215564822E-15, 7.000000000000006217 ) ) ;
#270 = CYLINDRICAL_SURFACE ( 'NONE', #296, 9.000000000000000000 ) ;
#271 = VECTOR ( 'NONE', #37, 1000.000000000000000 ) ;
#272 = CARTESIAN_POINT ( 'NONE',  ( 9.000000000000000000, 1.102182119232617714E-15, 167.0000000000000000 ) ) ;
#273 = CC_DESIGN_PERSON_AND_ORGANIZATION_ASSIGNMENT ( #261, #189, ( #231 ) ) ;
#274 = APPROVAL_PERSON_ORGANIZATION ( #99, #23, #238 ) ;
#275 = CARTESIAN_POINT ( 'NONE',  ( 9.000000000000000000, 1.102182119232617714E-15, 167.0000000000000000 ) ) ;
#276 = CARTESIAN_POINT ( 'NONE',  ( 9.199999999999999289, 0.000000000000000000, 7.200000000000011724 ) ) ;
#277 = PRODUCT_RELATED_PRODUCT_CATEGORY ( 'detail', '', ( #26 ) ) ;
#278 = CALENDAR_DATE ( 2022, 7, 7 ) ;
#279 = ORIENTED_EDGE ( 'NONE', *, *, #118, .F. ) ;
#280 = ADVANCED_FACE ( 'NONE', ( #90 ), #186, .T. ) ;
#281 = ORIENTED_EDGE ( 'NONE', *, *, #292, .T. ) ;
#282 = CIRCLE ( 'NONE', #182, 9.199999999999999289 ) ;
#283 = PERSON ( 'NEURÈENÝ', 'NEURÈENÝ', 'NEURÈENÝ', ('NEURÈENÝ'), ('NEURÈENÝ'), ('NEURÈENÝ') ) ;
#284 = CALENDAR_DATE ( 2022, 7, 7 ) ;
#285 = ORIENTED_EDGE ( 'NONE', *, *, #18, .T. ) ;
#286 = DATE_TIME_ROLE ( 'creation_date' ) ;
#287 = ORIENTED_EDGE ( 'NONE', *, *, #11, .T. ) ;
#288 = DIRECTION ( 'NONE',  ( -0.000000000000000000, -0.000000000000000000, -1.000000000000000000 ) ) ;
#289 = ADVANCED_FACE ( 'NONE', ( #17 ), #45, .T. ) ;
#290 = CARTESIAN_POINT ( 'NONE',  ( 9.199999999999999289, 0.000000000000000000, 7.000000000000006217 ) ) ;
#291 = CARTESIAN_POINT ( 'NONE',  ( -9.000000000000000000, 0.000000000000000000, 167.0000000000000000 ) ) ;
#292 = EDGE_CURVE ( 'NONE', #213, #30, #220, .T. ) ;
#293 = DIRECTION ( 'NONE',  ( 1.000000000000000000, 0.000000000000000000, 0.000000000000000000 ) ) ;
#294 = DIRECTION ( 'NONE',  ( -0.000000000000000000, -0.000000000000000000, -1.000000000000000000 ) ) ;
#295 = EDGE_CURVE ( 'NONE', #188, #167, #157, .T. ) ;
#296 = AXIS2_PLACEMENT_3D ( 'NONE', #204, #294, #6 ) ;
#297 = CARTESIAN_POINT ( 'NONE',  ( 0.000000000000000000, 0.000000000000000000, 0.000000000000000000 ) ) ;
#298 = LOCAL_TIME ( 14, 19, 36.00000000000000000, #259 ) ;
#299 = DIRECTION ( 'NONE',  ( 1.000000000000000000, 0.000000000000000000, -0.000000000000000000 ) ) ;
#300 = PERSON_AND_ORGANIZATION_ROLE ( 'design_owner' ) ;
#301 = CC_DESIGN_PERSON_AND_ORGANIZATION_ASSIGNMENT ( #110, #300, ( #26 ) ) ;
#302 = CIRCLE ( 'NONE', #226, 12.00000000000000178 ) ;
#303 = PERSON_AND_ORGANIZATION_ROLE ( 'classification_officer' ) ;
#304 = EDGE_LOOP ( 'NONE', ( #197, #232 ) ) ;
#305 = COORDINATED_UNIVERSAL_TIME_OFFSET ( 1, 0, .AHEAD. ) ;
#306 = EDGE_LOOP ( 'NONE', ( #279, #2, #68, #287 ) ) ;
#307 = EDGE_LOOP ( 'NONE', ( #164, #285 ) ) ;
ENDSEC;
END-ISO-10303-21;
