ISO-10303-21;
HEADER;
FILE_DESCRIPTION (( 'STEP AP203' ),
    '1' );
FILE_NAME ('c5cd.STEP',
    '2022-07-07T12:23:25',
    ( '' ),
    ( '' ),
    'SwSTEP 2.0',
    'SolidWorks 2019',
    '' );
FILE_SCHEMA (( 'CONFIG_CONTROL_DESIGN' ));
ENDSEC;

DATA;
#1 = EDGE_LOOP ( 'NONE', ( #250, #69 ) ) ;
#2 = CARTESIAN_POINT ( 'NONE',  ( 0.000000000000000000, 0.000000000000000000, 257.0000000000000000 ) ) ;
#3 = CARTESIAN_POINT ( 'NONE',  ( 0.000000000000000000, 0.000000000000000000, 0.000000000000000000 ) ) ;
#4 = CYLINDRICAL_SURFACE ( 'NONE', #81, 6.000000000000000888 ) ;
#5 = DIRECTION ( 'NONE',  ( -0.000000000000000000, -0.000000000000000000, -1.000000000000000000 ) ) ;
#6 = AXIS2_PLACEMENT_3D ( 'NONE', #3, #70, #166 ) ;
#7 = APPROVAL_ROLE ( '' ) ;
#8 = VECTOR ( 'NONE', #144, 1000.000000000000000 ) ;
#9 = CARTESIAN_POINT ( 'NONE',  ( 0.000000000000000000, 0.000000000000000000, 7.000000000000000000 ) ) ;
#10 =( NAMED_UNIT ( * ) SI_UNIT ( $, .STERADIAN. ) SOLID_ANGLE_UNIT ( ) );
#11 = DIRECTION ( 'NONE',  ( -0.000000000000000000, -0.000000000000000000, -1.000000000000000000 ) ) ;
#12 = CALENDAR_DATE ( 2022, 7, 7 ) ;
#13 = PRODUCT_DEFINITION ( 'NEZNÁMÝ', '', #249, #206 ) ;
#14 = FACE_OUTER_BOUND ( 'NONE', #19, .T. ) ;
#15 = PERSON_AND_ORGANIZATION ( #276, #150 ) ;
#16 = CLOSED_SHELL ( 'NONE', ( #156, #176, #135, #251, #306, #298, #147, #20, #116 ) ) ;
#17 = PRODUCT ( 'c5cd', 'c5cd', '', ( #199 ) ) ;
#18 = COORDINATED_UNIVERSAL_TIME_OFFSET ( 1, 0, .AHEAD. ) ;
#19 = EDGE_LOOP ( 'NONE', ( #98, #64 ) ) ;
#20 = ADVANCED_FACE ( 'NONE', ( #190 ), #287, .T. ) ;
#21 = CIRCLE ( 'NONE', #50, 6.200000000000001066 ) ;
#22 = ORIENTED_EDGE ( 'NONE', *, *, #26, .T. ) ;
#23 = CARTESIAN_POINT ( 'NONE',  ( -9.000000000000000000, 0.000000000000000000, 7.000000000000000000 ) ) ;
#24 = VERTEX_POINT ( 'NONE', #67 ) ;
#25 = ORIENTED_EDGE ( 'NONE', *, *, #90, .F. ) ;
#26 = EDGE_CURVE ( 'NONE', #118, #185, #102, .T. ) ;
#27 = ORIENTED_EDGE ( 'NONE', *, *, #97, .T. ) ;
#28 = ORIENTED_EDGE ( 'NONE', *, *, #127, .T. ) ;
#29 = LOCAL_TIME ( 14, 23, 25.00000000000000000, #18 ) ;
#30 = CARTESIAN_POINT ( 'NONE',  ( -9.000000000000000000, 0.000000000000000000, 0.000000000000000000 ) ) ;
#31 = DIRECTION ( 'NONE',  ( -0.000000000000000000, -0.000000000000000000, -1.000000000000000000 ) ) ;
#32 = DATE_AND_TIME ( #177, #154 ) ;
#33 = CARTESIAN_POINT ( 'NONE',  ( 0.000000000000000000, 0.000000000000000000, 257.0000000000000000 ) ) ;
#34 = MANIFOLD_SOLID_BREP ( 'Zaoblit1', #16 ) ;
#35 = AXIS2_PLACEMENT_3D ( 'NONE', #297, #175, #100 ) ;
#36 = APPROVAL_STATUS ( 'not_yet_approved' ) ;
#37 = AXIS2_PLACEMENT_3D ( 'NONE', #55, #262, #261 ) ;
#38 = CARTESIAN_POINT ( 'NONE',  ( 9.000000000000000000, 1.102182119232617714E-15, 7.000000000000000000 ) ) ;
#39 = CC_DESIGN_DATE_AND_TIME_ASSIGNMENT ( #296, #75, ( #42 ) ) ;
#40 = CARTESIAN_POINT ( 'NONE',  ( -6.200000000000001066, 7.592810154713590821E-16, 7.000000000000006217 ) ) ;
#41 = APPROVAL_STATUS ( 'not_yet_approved' ) ;
#42 = SECURITY_CLASSIFICATION ( '', '', #217 ) ;
#43 = ADVANCED_BREP_SHAPE_REPRESENTATION ( 'c5cd', ( #34, #202 ), #159 ) ;
#44 = ORIENTED_EDGE ( 'NONE', *, *, #233, .F. ) ;
#45 = ORIENTED_EDGE ( 'NONE', *, *, #127, .F. ) ;
#46 = APPROVAL ( #41, 'NEURÈENÝ' ) ;
#47 = ORIENTED_EDGE ( 'NONE', *, *, #104, .T. ) ;
#48 = AXIS2_PLACEMENT_3D ( 'NONE', #252, #52, #141 ) ;
#49 = DIRECTION ( 'NONE',  ( -0.000000000000000000, -0.000000000000000000, -1.000000000000000000 ) ) ;
#50 = AXIS2_PLACEMENT_3D ( 'NONE', #291, #170, #173 ) ;
#51 = VERTEX_POINT ( 'NONE', #282 ) ;
#52 = DIRECTION ( 'NONE',  ( 1.224646799147353207E-16, 1.000000000000000000, -0.000000000000000000 ) ) ;
#53 = VERTEX_POINT ( 'NONE', #281 ) ;
#54 = DIRECTION ( 'NONE',  ( -0.000000000000000000, -0.000000000000000000, -1.000000000000000000 ) ) ;
#55 = CARTESIAN_POINT ( 'NONE',  ( 6.200000000000001066, 0.000000000000000000, 7.200000000000011724 ) ) ;
#56 = CARTESIAN_POINT ( 'NONE',  ( 0.000000000000000000, 0.000000000000000000, 7.000000000000000000 ) ) ;
#57 = EDGE_CURVE ( 'NONE', #51, #118, #212, .T. ) ;
#58 = FACE_OUTER_BOUND ( 'NONE', #92, .T. ) ;
#59 = PERSON_AND_ORGANIZATION ( #276, #150 ) ;
#60 = DIRECTION ( 'NONE',  ( 0.000000000000000000, 0.000000000000000000, 1.000000000000000000 ) ) ;
#61 = COORDINATED_UNIVERSAL_TIME_OFFSET ( 1, 0, .AHEAD. ) ;
#62 = ORIENTED_EDGE ( 'NONE', *, *, #228, .F. ) ;
#63 = ORIENTED_EDGE ( 'NONE', *, *, #90, .T. ) ;
#64 = ORIENTED_EDGE ( 'NONE', *, *, #160, .T. ) ;
#65 = EDGE_CURVE ( 'NONE', #53, #51, #247, .T. ) ;
#66 = ORIENTED_EDGE ( 'NONE', *, *, #76, .T. ) ;
#67 = CARTESIAN_POINT ( 'NONE',  ( 6.200000000000001066, 0.000000000000000000, 7.000000000000006217 ) ) ;
#68 = CC_DESIGN_PERSON_AND_ORGANIZATION_ASSIGNMENT ( #15, #242, ( #13 ) ) ;
#69 = ORIENTED_EDGE ( 'NONE', *, *, #228, .T. ) ;
#70 = DIRECTION ( 'NONE',  ( 0.000000000000000000, 0.000000000000000000, 1.000000000000000000 ) ) ;
#71 = DIRECTION ( 'NONE',  ( 0.000000000000000000, 0.000000000000000000, 1.000000000000000000 ) ) ;
#72 = DIRECTION ( 'NONE',  ( 1.000000000000000000, 0.000000000000000000, 0.000000000000000000 ) ) ;
#73 = LOCAL_TIME ( 14, 23, 25.00000000000000000, #227 ) ;
#74 = CARTESIAN_POINT ( 'NONE',  ( 0.000000000000000000, 0.000000000000000000, 7.000000000000000000 ) ) ;
#75 = DATE_TIME_ROLE ( 'classification_date' ) ;
#76 = EDGE_CURVE ( 'NONE', #186, #209, #131, .T. ) ;
#77 = CARTESIAN_POINT ( 'NONE',  ( 0.000000000000000000, 0.000000000000000000, 7.000000000000000000 ) ) ;
#78 = CALENDAR_DATE ( 2022, 7, 7 ) ;
#79 = CARTESIAN_POINT ( 'NONE',  ( 0.000000000000000000, 0.000000000000000000, 257.0000000000000000 ) ) ;
#80 = SHAPE_DEFINITION_REPRESENTATION ( #273, #43 ) ;
#81 = AXIS2_PLACEMENT_3D ( 'NONE', #240, #31, #193 ) ;
#82 = LOCAL_TIME ( 14, 23, 25.00000000000000000, #129 ) ;
#83 = DIRECTION ( 'NONE',  ( 0.000000000000000000, 0.000000000000000000, 1.000000000000000000 ) ) ;
#84 = CARTESIAN_POINT ( 'NONE',  ( 0.000000000000000000, 0.000000000000000000, 0.000000000000000000 ) ) ;
#85 = APPROVAL_ROLE ( '' ) ;
#86 = ORIENTED_EDGE ( 'NONE', *, *, #213, .F. ) ;
#87 = VECTOR ( 'NONE', #305, 1000.000000000000000 ) ;
#88 = AXIS2_PLACEMENT_3D ( 'NONE', #196, #120, #101 ) ;
#89 = ORIENTED_EDGE ( 'NONE', *, *, #203, .F. ) ;
#90 = EDGE_CURVE ( 'NONE', #279, #209, #136, .T. ) ;
#91 = ORIENTED_EDGE ( 'NONE', *, *, #26, .F. ) ;
#92 = EDGE_LOOP ( 'NONE', ( #207, #188, #22, #283 ) ) ;
#93 = CARTESIAN_POINT ( 'NONE',  ( -9.000000000000000000, 0.000000000000000000, 7.000000000000000000 ) ) ;
#94 = APPROVAL ( #36, 'NEURÈENÝ' ) ;
#95 = ORIENTED_EDGE ( 'NONE', *, *, #104, .F. ) ;
#96 = ORIENTED_EDGE ( 'NONE', *, *, #76, .F. ) ;
#97 = EDGE_CURVE ( 'NONE', #209, #186, #130, .T. ) ;
#98 = ORIENTED_EDGE ( 'NONE', *, *, #269, .T. ) ;
#99 = CARTESIAN_POINT ( 'NONE',  ( 0.000000000000000000, 0.000000000000000000, 7.200000000000011724 ) ) ;
#100 = DIRECTION ( 'NONE',  ( -1.000000000000000000, 0.000000000000000000, 0.000000000000000000 ) ) ;
#101 = DIRECTION ( 'NONE',  ( 1.000000000000000000, 0.000000000000000000, 0.000000000000000000 ) ) ;
#102 = CIRCLE ( 'NONE', #260, 6.000000000000000888 ) ;
#103 = PERSON_AND_ORGANIZATION ( #276, #150 ) ;
#104 = EDGE_CURVE ( 'NONE', #185, #304, #243, .T. ) ;
#105 = DIRECTION ( 'NONE',  ( -1.000000000000000000, 0.000000000000000000, 0.000000000000000000 ) ) ;
#106 = APPROVAL_ROLE ( '' ) ;
#107 = DIRECTION ( 'NONE',  ( 1.000000000000000000, 0.000000000000000000, 0.000000000000000000 ) ) ;
#108 = APPLICATION_PROTOCOL_DEFINITION ( 'international standard', 'config_control_design', 1994, #211 ) ;
#109 = PLANE ( 'NONE',  #142 ) ;
#110 = APPROVAL_PERSON_ORGANIZATION ( #172, #94, #106 ) ;
#111 = CIRCLE ( 'NONE', #284, 9.000000000000000000 ) ;
#112 = ORIENTED_EDGE ( 'NONE', *, *, #269, .F. ) ;
#113 = CARTESIAN_POINT ( 'NONE',  ( 0.000000000000000000, 0.000000000000000000, 0.000000000000000000 ) ) ;
#114 = CARTESIAN_POINT ( 'NONE',  ( 6.000000000000000888, 7.347880794884120722E-16, 257.0000000000000000 ) ) ;
#115 = EDGE_LOOP ( 'NONE', ( #139, #301, #205, #302 ) ) ;
#116 = ADVANCED_FACE ( 'NONE', ( #192 ), #163, .F. ) ;
#117 = AXIS2_PLACEMENT_3D ( 'NONE', #2, #71, #257 ) ;
#118 = VERTEX_POINT ( 'NONE', #143 ) ;
#119 = CARTESIAN_POINT ( 'NONE',  ( -6.000000000000000888, 0.000000000000000000, 257.0000000000000000 ) ) ;
#120 = DIRECTION ( 'NONE',  ( 0.000000000000000000, 0.000000000000000000, 1.000000000000000000 ) ) ;
#121 = PERSON_AND_ORGANIZATION_ROLE ( 'creator' ) ;
#122 = CYLINDRICAL_SURFACE ( 'NONE', #35, 9.000000000000000000 ) ;
#123 = AXIS2_PLACEMENT_3D ( 'NONE', #33, #54, #105 ) ;
#124 = CALENDAR_DATE ( 2022, 7, 7 ) ;
#125 = FACE_OUTER_BOUND ( 'NONE', #210, .T. ) ;
#126 = PERSON_AND_ORGANIZATION ( #276, #150 ) ;
#127 = EDGE_CURVE ( 'NONE', #133, #186, #214, .T. ) ;
#128 = CARTESIAN_POINT ( 'NONE',  ( 0.000000000000000000, 0.000000000000000000, 7.200000000000011724 ) ) ;
#129 = COORDINATED_UNIVERSAL_TIME_OFFSET ( 1, 0, .AHEAD. ) ;
#130 = CIRCLE ( 'NONE', #6, 9.000000000000000000 ) ;
#131 = CIRCLE ( 'NONE', #259, 9.000000000000000000 ) ;
#132 = DATE_AND_TIME ( #294, #29 ) ;
#133 = VERTEX_POINT ( 'NONE', #93 ) ;
#134 = UNCERTAINTY_MEASURE_WITH_UNIT (LENGTH_MEASURE( 1.000000000000000082E-05 ), #241, 'distance_accuracy_value', 'NONE');
#135 = ADVANCED_FACE ( 'NONE', ( #215 ), #122, .T. ) ;
#136 = LINE ( 'NONE', #230, #168 ) ;
#137 = DIRECTION ( 'NONE',  ( 1.000000000000000000, 0.000000000000000000, 0.000000000000000000 ) ) ;
#138 = AXIS2_PLACEMENT_3D ( 'NONE', #9, #264, #288 ) ;
#139 = ORIENTED_EDGE ( 'NONE', *, *, #57, .F. ) ;
#140 = CC_DESIGN_PERSON_AND_ORGANIZATION_ASSIGNMENT ( #103, #292, ( #42 ) ) ;
#141 = DIRECTION ( 'NONE',  ( -1.000000000000000000, 1.224646799147353454E-16, 0.000000000000000000 ) ) ;
#142 = AXIS2_PLACEMENT_3D ( 'NONE', #200, #178, #225 ) ;
#143 = CARTESIAN_POINT ( 'NONE',  ( 6.000000000000000888, 7.347880794884120722E-16, 7.200000000000011724 ) ) ;
#144 = DIRECTION ( 'NONE',  ( -0.000000000000000000, -0.000000000000000000, -1.000000000000000000 ) ) ;
#145 = DATE_AND_TIME ( #124, #73 ) ;
#146 = DIRECTION ( 'NONE',  ( 1.000000000000000000, 0.000000000000000000, 0.000000000000000000 ) ) ;
#147 = ADVANCED_FACE ( 'NONE', ( #235 ), #4, .T. ) ;
#148 = DIRECTION ( 'NONE',  ( 0.000000000000000000, 0.000000000000000000, 1.000000000000000000 ) ) ;
#149 = DIRECTION ( 'NONE',  ( 0.000000000000000000, 0.000000000000000000, 1.000000000000000000 ) ) ;
#150 = ORGANIZATION ( 'NEURÈENÝ', 'NEURÈENÝ', '' ) ;
#151 = APPROVAL_DATE_TIME ( #266, #94 ) ;
#152 = DIRECTION ( 'NONE',  ( 1.000000000000000000, 0.000000000000000000, -0.000000000000000000 ) ) ;
#153 = APPLICATION_PROTOCOL_DEFINITION ( 'international standard', 'config_control_design', 1994, #290 ) ;
#154 = LOCAL_TIME ( 14, 23, 25.00000000000000000, #61 ) ;
#155 = EDGE_CURVE ( 'NONE', #53, #185, #220, .T. ) ;
#156 = ADVANCED_FACE ( 'NONE', ( #171 ), #275, .F. ) ;
#157 = ORIENTED_EDGE ( 'NONE', *, *, #233, .T. ) ;
#158 = ORIENTED_EDGE ( 'NONE', *, *, #160, .F. ) ;
#159 =( GEOMETRIC_REPRESENTATION_CONTEXT ( 3 ) GLOBAL_UNCERTAINTY_ASSIGNED_CONTEXT ( ( #134 ) ) GLOBAL_UNIT_ASSIGNED_CONTEXT ( ( #241, #263, #10 ) ) REPRESENTATION_CONTEXT ( 'NONE', 'WORKASPACE' ) );
#160 = EDGE_CURVE ( 'NONE', #279, #133, #219, .T. ) ;
#161 = DIRECTION ( 'NONE',  ( 0.000000000000000000, 0.000000000000000000, 1.000000000000000000 ) ) ;
#162 = DIRECTION ( 'NONE',  ( 0.000000000000000000, 0.000000000000000000, 1.000000000000000000 ) ) ;
#163 = TOROIDAL_SURFACE ( 'NONE', #218, 6.200000000000001066, 0.2000000000000000111 ) ;
#164 = AXIS2_PLACEMENT_3D ( 'NONE', #77, #11, #72 ) ;
#165 = DIRECTION ( 'NONE',  ( 1.000000000000000000, 0.000000000000000000, -0.000000000000000000 ) ) ;
#166 = DIRECTION ( 'NONE',  ( 1.000000000000000000, 0.000000000000000000, 0.000000000000000000 ) ) ;
#167 = DIRECTION ( 'NONE',  ( 0.000000000000000000, 0.000000000000000000, 1.000000000000000000 ) ) ;
#168 = VECTOR ( 'NONE', #286, 1000.000000000000000 ) ;
#169 = LOCAL_TIME ( 14, 23, 25.00000000000000000, #174 ) ;
#170 = DIRECTION ( 'NONE',  ( -0.000000000000000000, -0.000000000000000000, -1.000000000000000000 ) ) ;
#171 = FACE_OUTER_BOUND ( 'NONE', #245, .T. ) ;
#172 = PERSON_AND_ORGANIZATION ( #276, #150 ) ;
#173 = DIRECTION ( 'NONE',  ( 1.000000000000000000, 0.000000000000000000, 0.000000000000000000 ) ) ;
#174 = COORDINATED_UNIVERSAL_TIME_OFFSET ( 1, 0, .AHEAD. ) ;
#175 = DIRECTION ( 'NONE',  ( -0.000000000000000000, -0.000000000000000000, -1.000000000000000000 ) ) ;
#176 = ADVANCED_FACE ( 'NONE', ( #58 ), #293, .T. ) ;
#177 = CALENDAR_DATE ( 2022, 7, 7 ) ;
#178 = DIRECTION ( 'NONE',  ( 0.000000000000000000, 0.000000000000000000, 1.000000000000000000 ) ) ;
#179 = DIRECTION ( 'NONE',  ( 1.000000000000000000, 0.000000000000000000, 0.000000000000000000 ) ) ;
#180 = APPROVAL_DATE_TIME ( #132, #46 ) ;
#181 = AXIS2_PLACEMENT_3D ( 'NONE', #128, #83, #107 ) ;
#182 = CC_DESIGN_APPROVAL ( #280, ( #249 ) ) ;
#183 = CIRCLE ( 'NONE', #88, 6.000000000000000888 ) ;
#184 = CC_DESIGN_PERSON_AND_ORGANIZATION_ASSIGNMENT ( #59, #300, ( #17 ) ) ;
#185 = VERTEX_POINT ( 'NONE', #234 ) ;
#186 = VERTEX_POINT ( 'NONE', #30 ) ;
#187 = EDGE_LOOP ( 'NONE', ( #158, #63, #27, #45 ) ) ;
#188 = ORIENTED_EDGE ( 'NONE', *, *, #57, .T. ) ;
#189 = CC_DESIGN_PERSON_AND_ORGANIZATION_ASSIGNMENT ( #299, #197, ( #249 ) ) ;
#190 = FACE_OUTER_BOUND ( 'NONE', #246, .T. ) ;
#191 = DIRECTION ( 'NONE',  ( 0.000000000000000000, 0.000000000000000000, 1.000000000000000000 ) ) ;
#192 = FACE_OUTER_BOUND ( 'NONE', #277, .T. ) ;
#193 = DIRECTION ( 'NONE',  ( -1.000000000000000000, 0.000000000000000000, 0.000000000000000000 ) ) ;
#194 = CC_DESIGN_APPROVAL ( #46, ( #13 ) ) ;
#195 = CARTESIAN_POINT ( 'NONE',  ( 9.000000000000000000, 1.102182119232617714E-15, 0.000000000000000000 ) ) ;
#196 = CARTESIAN_POINT ( 'NONE',  ( 0.000000000000000000, 0.000000000000000000, 7.200000000000011724 ) ) ;
#197 = PERSON_AND_ORGANIZATION_ROLE ( 'design_supplier' ) ;
#198 = DIRECTION ( 'NONE',  ( -1.000000000000000000, 0.000000000000000000, 0.000000000000000000 ) ) ;
#199 = MECHANICAL_CONTEXT ( 'NONE', #211, 'mechanical' ) ;
#200 = CARTESIAN_POINT ( 'NONE',  ( 0.000000000000000000, 0.000000000000000000, 7.000000000000000000 ) ) ;
#201 = APPROVAL_PERSON_ORGANIZATION ( #236, #280, #7 ) ;
#202 = AXIS2_PLACEMENT_3D ( 'NONE', #84, #148, #179 ) ;
#203 = EDGE_CURVE ( 'NONE', #185, #118, #183, .T. ) ;
#204 = ORIENTED_EDGE ( 'NONE', *, *, #256, .T. ) ;
#205 = ORIENTED_EDGE ( 'NONE', *, *, #155, .T. ) ;
#206 = DESIGN_CONTEXT ( 'detailed design', #290, 'design' ) ;
#207 = ORIENTED_EDGE ( 'NONE', *, *, #256, .F. ) ;
#208 = AXIS2_PLACEMENT_3D ( 'NONE', #295, #268, #152 ) ;
#209 = VERTEX_POINT ( 'NONE', #195 ) ;
#210 = EDGE_LOOP ( 'NONE', ( #96, #278 ) ) ;
#211 = APPLICATION_CONTEXT ( 'configuration controlled 3d designs of mechanical parts and assemblies' ) ;
#212 = LINE ( 'NONE', #114, #229 ) ;
#213 = EDGE_CURVE ( 'NONE', #24, #304, #254, .T. ) ;
#214 = LINE ( 'NONE', #23, #87 ) ;
#215 = FACE_OUTER_BOUND ( 'NONE', #187, .T. ) ;
#216 = FACE_OUTER_BOUND ( 'NONE', #232, .T. ) ;
#217 = SECURITY_CLASSIFICATION_LEVEL ( 'unclassified' ) ;
#218 = AXIS2_PLACEMENT_3D ( 'NONE', #99, #167, #258 ) ;
#219 = CIRCLE ( 'NONE', #138, 9.000000000000000000 ) ;
#220 = LINE ( 'NONE', #119, #8 ) ;
#221 = CIRCLE ( 'NONE', #238, 6.000000000000000888 ) ;
#222 = PLANE ( 'NONE',  #208 ) ;
#223 = FACE_BOUND ( 'NONE', #1, .T. ) ;
#224 = PERSON_AND_ORGANIZATION ( #276, #150 ) ;
#225 = DIRECTION ( 'NONE',  ( 1.000000000000000000, 0.000000000000000000, -0.000000000000000000 ) ) ;
#226 = CC_DESIGN_APPROVAL ( #94, ( #42 ) ) ;
#227 = COORDINATED_UNIVERSAL_TIME_OFFSET ( 1, 0, .AHEAD. ) ;
#228 = EDGE_CURVE ( 'NONE', #304, #24, #21, .T. ) ;
#229 = VECTOR ( 'NONE', #49, 1000.000000000000000 ) ;
#230 = CARTESIAN_POINT ( 'NONE',  ( 9.000000000000000000, 1.102182119232617714E-15, 7.000000000000000000 ) ) ;
#231 = CARTESIAN_POINT ( 'NONE',  ( 0.000000000000000000, 0.000000000000000000, 7.200000000000011724 ) ) ;
#232 = EDGE_LOOP ( 'NONE', ( #25, #112, #28, #66 ) ) ;
#233 = EDGE_CURVE ( 'NONE', #118, #24, #248, .T. ) ;
#234 = CARTESIAN_POINT ( 'NONE',  ( -6.000000000000000888, 0.000000000000000000, 7.200000000000011724 ) ) ;
#235 = FACE_OUTER_BOUND ( 'NONE', #115, .T. ) ;
#236 = PERSON_AND_ORGANIZATION ( #276, #150 ) ;
#237 = CC_DESIGN_PERSON_AND_ORGANIZATION_ASSIGNMENT ( #126, #121, ( #249 ) ) ;
#238 = AXIS2_PLACEMENT_3D ( 'NONE', #79, #60, #146 ) ;
#239 = DIRECTION ( 'NONE',  ( 1.000000000000000000, 0.000000000000000000, 0.000000000000000000 ) ) ;
#240 = CARTESIAN_POINT ( 'NONE',  ( 0.000000000000000000, 0.000000000000000000, 257.0000000000000000 ) ) ;
#241 =( LENGTH_UNIT ( ) NAMED_UNIT ( * ) SI_UNIT ( .MILLI., .METRE. ) );
#242 = PERSON_AND_ORGANIZATION_ROLE ( 'creator' ) ;
#243 = CIRCLE ( 'NONE', #48, 0.1999999999999996503 ) ;
#244 = CC_DESIGN_SECURITY_CLASSIFICATION ( #42, ( #249 ) ) ;
#245 = EDGE_LOOP ( 'NONE', ( #89, #47, #86, #44 ) ) ;
#246 = EDGE_LOOP ( 'NONE', ( #255, #204 ) ) ;
#247 = CIRCLE ( 'NONE', #117, 6.000000000000000888 ) ;
#248 = CIRCLE ( 'NONE', #37, 0.1999999999999996503 ) ;
#249 = PRODUCT_DEFINITION_FORMATION_WITH_SPECIFIED_SOURCE ( 'LIBOVOLNÝ', '', #17, .NOT_KNOWN. ) ;
#250 = ORIENTED_EDGE ( 'NONE', *, *, #213, .T. ) ;
#251 = ADVANCED_FACE ( 'NONE', ( #216 ), #271, .T. ) ;
#252 = CARTESIAN_POINT ( 'NONE',  ( -6.200000000000001066, 7.592810154713590821E-16, 7.200000000000011724 ) ) ;
#253 = DIRECTION ( 'NONE',  ( 1.000000000000000000, 0.000000000000000000, 0.000000000000000000 ) ) ;
#254 = CIRCLE ( 'NONE', #164, 6.200000000000001066 ) ;
#255 = ORIENTED_EDGE ( 'NONE', *, *, #65, .T. ) ;
#256 = EDGE_CURVE ( 'NONE', #51, #53, #221, .T. ) ;
#257 = DIRECTION ( 'NONE',  ( 1.000000000000000000, 0.000000000000000000, 0.000000000000000000 ) ) ;
#258 = DIRECTION ( 'NONE',  ( 1.000000000000000000, 0.000000000000000000, 0.000000000000000000 ) ) ;
#259 = AXIS2_PLACEMENT_3D ( 'NONE', #113, #161, #137 ) ;
#260 = AXIS2_PLACEMENT_3D ( 'NONE', #231, #162, #253 ) ;
#261 = DIRECTION ( 'NONE',  ( 0.000000000000000000, 0.000000000000000000, -1.000000000000000000 ) ) ;
#262 = DIRECTION ( 'NONE',  ( 0.000000000000000000, -1.000000000000000000, 0.000000000000000000 ) ) ;
#263 =( NAMED_UNIT ( * ) PLANE_ANGLE_UNIT ( ) SI_UNIT ( $, .RADIAN. ) );
#264 = DIRECTION ( 'NONE',  ( 0.000000000000000000, 0.000000000000000000, 1.000000000000000000 ) ) ;
#265 = CC_DESIGN_DATE_AND_TIME_ASSIGNMENT ( #145, #274, ( #13 ) ) ;
#266 = DATE_AND_TIME ( #78, #169 ) ;
#267 = AXIS2_PLACEMENT_3D ( 'NONE', #307, #191, #165 ) ;
#268 = DIRECTION ( 'NONE',  ( 0.000000000000000000, 0.000000000000000000, 1.000000000000000000 ) ) ;
#269 = EDGE_CURVE ( 'NONE', #133, #279, #111, .T. ) ;
#270 = APPROVAL_DATE_TIME ( #32, #280 ) ;
#271 = CYLINDRICAL_SURFACE ( 'NONE', #303, 9.000000000000000000 ) ;
#272 = APPROVAL_STATUS ( 'not_yet_approved' ) ;
#273 = PRODUCT_DEFINITION_SHAPE ( 'NONE', 'NONE',  #13 ) ;
#274 = DATE_TIME_ROLE ( 'creation_date' ) ;
#275 = TOROIDAL_SURFACE ( 'NONE', #181, 6.200000000000001066, 0.2000000000000000111 ) ;
#276 = PERSON ( 'NEURÈENÝ', 'NEURÈENÝ', 'NEURÈENÝ', ('NEURÈENÝ'), ('NEURÈENÝ'), ('NEURÈENÝ') ) ;
#277 = EDGE_LOOP ( 'NONE', ( #95, #91, #157, #62 ) ) ;
#278 = ORIENTED_EDGE ( 'NONE', *, *, #97, .F. ) ;
#279 = VERTEX_POINT ( 'NONE', #38 ) ;
#280 = APPROVAL ( #272, 'NEURÈENÝ' ) ;
#281 = CARTESIAN_POINT ( 'NONE',  ( -6.000000000000000888, 0.000000000000000000, 257.0000000000000000 ) ) ;
#282 = CARTESIAN_POINT ( 'NONE',  ( 6.000000000000000888, 7.347880794884120722E-16, 257.0000000000000000 ) ) ;
#283 = ORIENTED_EDGE ( 'NONE', *, *, #155, .F. ) ;
#284 = AXIS2_PLACEMENT_3D ( 'NONE', #56, #149, #239 ) ;
#285 = APPROVAL_PERSON_ORGANIZATION ( #224, #46, #85 ) ;
#286 = DIRECTION ( 'NONE',  ( -0.000000000000000000, -0.000000000000000000, -1.000000000000000000 ) ) ;
#287 = PLANE ( 'NONE',  #267 ) ;
#288 = DIRECTION ( 'NONE',  ( 1.000000000000000000, 0.000000000000000000, 0.000000000000000000 ) ) ;
#289 = PRODUCT_RELATED_PRODUCT_CATEGORY ( 'detail', '', ( #17 ) ) ;
#290 = APPLICATION_CONTEXT ( 'configuration controlled 3d designs of mechanical parts and assemblies' ) ;
#291 = CARTESIAN_POINT ( 'NONE',  ( 0.000000000000000000, 0.000000000000000000, 7.000000000000000000 ) ) ;
#292 = PERSON_AND_ORGANIZATION_ROLE ( 'classification_officer' ) ;
#293 = CYLINDRICAL_SURFACE ( 'NONE', #123, 6.000000000000000888 ) ;
#294 = CALENDAR_DATE ( 2022, 7, 7 ) ;
#295 = CARTESIAN_POINT ( 'NONE',  ( 0.000000000000000000, 0.000000000000000000, 0.000000000000000000 ) ) ;
#296 = DATE_AND_TIME ( #12, #82 ) ;
#297 = CARTESIAN_POINT ( 'NONE',  ( 0.000000000000000000, 0.000000000000000000, 7.000000000000000000 ) ) ;
#298 = ADVANCED_FACE ( 'NONE', ( #125 ), #222, .F. ) ;
#299 = PERSON_AND_ORGANIZATION ( #276, #150 ) ;
#300 = PERSON_AND_ORGANIZATION_ROLE ( 'design_owner' ) ;
#301 = ORIENTED_EDGE ( 'NONE', *, *, #65, .F. ) ;
#302 = ORIENTED_EDGE ( 'NONE', *, *, #203, .T. ) ;
#303 = AXIS2_PLACEMENT_3D ( 'NONE', #74, #5, #198 ) ;
#304 = VERTEX_POINT ( 'NONE', #40 ) ;
#305 = DIRECTION ( 'NONE',  ( -0.000000000000000000, -0.000000000000000000, -1.000000000000000000 ) ) ;
#306 = ADVANCED_FACE ( 'NONE', ( #223, #14 ), #109, .T. ) ;
#307 = CARTESIAN_POINT ( 'NONE',  ( 0.000000000000000000, 0.000000000000000000, 257.0000000000000000 ) ) ;
ENDSEC;
END-ISO-10303-21;
