ISO-10303-21;
HEADER;
FILE_DESCRIPTION (( 'STEP AP203' ),
    '1' );
FILE_NAME ('de50.STEP',
    '2022-07-07T12:43:45',
    ( '' ),
    ( '' ),
    'SwSTEP 2.0',
    'SolidWorks 2019',
    '' );
FILE_SCHEMA (( 'CONFIG_CONTROL_DESIGN' ));
ENDSEC;

DATA;
#1 = AXIS2_PLACEMENT_3D ( 'NONE', #210, #299, #260 ) ;
#2 = PLANE ( 'NONE',  #76 ) ;
#3 = EDGE_CURVE ( 'NONE', #181, #207, #173, .T. ) ;
#4 = CARTESIAN_POINT ( 'NONE',  ( 2.949999999999999734, 0.000000000000000000, 3.200000000000008171 ) ) ;
#5 = AXIS2_PLACEMENT_3D ( 'NONE', #82, #266, #36 ) ;
#6 = LINE ( 'NONE', #55, #301 ) ;
#7 = CYLINDRICAL_SURFACE ( 'NONE', #267, 5.000000000000000000 ) ;
#8 = AXIS2_PLACEMENT_3D ( 'NONE', #303, #189, #240 ) ;
#9 = AXIS2_PLACEMENT_3D ( 'NONE', #47, #211, #279 ) ;
#10 = EDGE_CURVE ( 'NONE', #69, #159, #103, .T. ) ;
#11 = APPLICATION_PROTOCOL_DEFINITION ( 'international standard', 'config_control_design', 1994, #199 ) ;
#12 = AXIS2_PLACEMENT_3D ( 'NONE', #119, #247, #283 ) ;
#13 = DATE_TIME_ROLE ( 'creation_date' ) ;
#14 = ORIENTED_EDGE ( 'NONE', *, *, #17, .T. ) ;
#15 = PERSON_AND_ORGANIZATION_ROLE ( 'creator' ) ;
#16 = EDGE_LOOP ( 'NONE', ( #258, #115 ) ) ;
#17 = EDGE_CURVE ( 'NONE', #159, #69, #190, .T. ) ;
#18 = CLOSED_SHELL ( 'NONE', ( #187, #191, #246, #304, #32, #261, #83, #277, #123 ) ) ;
#19 = MECHANICAL_CONTEXT ( 'NONE', #199, 'mechanical' ) ;
#20 = DIRECTION ( 'NONE',  ( 1.000000000000000000, 0.000000000000000000, 0.000000000000000000 ) ) ;
#21 = ORIENTED_EDGE ( 'NONE', *, *, #269, .F. ) ;
#22 = EDGE_LOOP ( 'NONE', ( #137, #130, #46, #292 ) ) ;
#23 = AXIS2_PLACEMENT_3D ( 'NONE', #147, #242, #253 ) ;
#24 = EDGE_LOOP ( 'NONE', ( #53, #248, #71, #29 ) ) ;
#25 = CARTESIAN_POINT ( 'NONE',  ( 0.000000000000000000, 0.000000000000000000, 3.200000000000008171 ) ) ;
#26 = ORIENTED_EDGE ( 'NONE', *, *, #227, .T. ) ;
#27 = EDGE_CURVE ( 'NONE', #207, #181, #59, .T. ) ;
#28 = CIRCLE ( 'NONE', #23, 2.949999999999999734 ) ;
#29 = ORIENTED_EDGE ( 'NONE', *, *, #160, .F. ) ;
#30 = CARTESIAN_POINT ( 'NONE',  ( -2.949999999999999734, 3.612708057484692097E-16, 3.200000000000008171 ) ) ;
#31 = CIRCLE ( 'NONE', #263, 0.2000000000000000944 ) ;
#32 = ADVANCED_FACE ( 'NONE', ( #77, #275 ), #118, .T. ) ;
#33 = DIRECTION ( 'NONE',  ( 1.000000000000000000, 0.000000000000000000, -0.000000000000000000 ) ) ;
#34 = PERSON ( 'NEURÈENÝ', 'NEURÈENÝ', 'NEURÈENÝ', ('NEURÈENÝ'), ('NEURÈENÝ'), ('NEURÈENÝ') ) ;
#35 = CYLINDRICAL_SURFACE ( 'NONE', #229, 2.750000000000000000 ) ;
#36 = DIRECTION ( 'NONE',  ( 1.000000000000000000, 0.000000000000000000, 0.000000000000000000 ) ) ;
#37 = AXIS2_PLACEMENT_3D ( 'NONE', #278, #74, #145 ) ;
#38 = FACE_OUTER_BOUND ( 'NONE', #209, .T. ) ;
#39 = EDGE_CURVE ( 'NONE', #305, #112, #28, .T. ) ;
#40 = COORDINATED_UNIVERSAL_TIME_OFFSET ( 1, 0, .AHEAD. ) ;
#41 = EDGE_LOOP ( 'NONE', ( #270, #26, #239, #146 ) ) ;
#42 = AXIS2_PLACEMENT_3D ( 'NONE', #244, #220, #33 ) ;
#43 = SECURITY_CLASSIFICATION_LEVEL ( 'unclassified' ) ;
#44 = ORIENTED_EDGE ( 'NONE', *, *, #256, .F. ) ;
#45 = COORDINATED_UNIVERSAL_TIME_OFFSET ( 1, 0, .AHEAD. ) ;
#46 = ORIENTED_EDGE ( 'NONE', *, *, #65, .T. ) ;
#47 = CARTESIAN_POINT ( 'NONE',  ( 0.000000000000000000, 0.000000000000000000, 163.0000000000000000 ) ) ;
#48 = CARTESIAN_POINT ( 'NONE',  ( 5.000000000000000000, 6.123233995736766282E-16, 3.000000000000000000 ) ) ;
#49 = CC_DESIGN_PERSON_AND_ORGANIZATION_ASSIGNMENT ( #91, #15, ( #225 ) ) ;
#50 = FACE_OUTER_BOUND ( 'NONE', #22, .T. ) ;
#51 = AXIS2_PLACEMENT_3D ( 'NONE', #197, #150, #105 ) ;
#52 = DIRECTION ( 'NONE',  ( -0.000000000000000000, -0.000000000000000000, -1.000000000000000000 ) ) ;
#53 = ORIENTED_EDGE ( 'NONE', *, *, #10, .F. ) ;
#54 = DESIGN_CONTEXT ( 'detailed design', #110, 'design' ) ;
#55 = CARTESIAN_POINT ( 'NONE',  ( 5.000000000000000000, 6.123233995736766282E-16, 3.000000000000000000 ) ) ;
#56 = CARTESIAN_POINT ( 'NONE',  ( 2.750000000000000000, 3.367778697655221012E-16, 163.0000000000000000 ) ) ;
#57 = VECTOR ( 'NONE', #287, 1000.000000000000000 ) ;
#58 = DIRECTION ( 'NONE',  ( -0.000000000000000000, -0.000000000000000000, -1.000000000000000000 ) ) ;
#59 = CIRCLE ( 'NONE', #121, 5.000000000000000000 ) ;
#60 = DIRECTION ( 'NONE',  ( 1.224646799147353207E-16, 1.000000000000000000, -0.000000000000000000 ) ) ;
#61 = DIRECTION ( 'NONE',  ( -0.000000000000000000, -0.000000000000000000, -1.000000000000000000 ) ) ;
#62 = LOCAL_TIME ( 14, 43, 45.00000000000000000, #45 ) ;
#63 = CC_DESIGN_PERSON_AND_ORGANIZATION_ASSIGNMENT ( #201, #87, ( #289 ) ) ;
#64 = CALENDAR_DATE ( 2022, 7, 7 ) ;
#65 = EDGE_CURVE ( 'NONE', #218, #182, #73, .T. ) ;
#66 = PERSON_AND_ORGANIZATION ( #34, #175 ) ;
#67 = TOROIDAL_SURFACE ( 'NONE', #5, 2.949999999999999734, 0.2000000000000000111 ) ;
#68 = APPROVAL_DATE_TIME ( #89, #133 ) ;
#69 = VERTEX_POINT ( 'NONE', #48 ) ;
#70 = APPROVAL_STATUS ( 'not_yet_approved' ) ;
#71 = ORIENTED_EDGE ( 'NONE', *, *, #3, .T. ) ;
#72 = CARTESIAN_POINT ( 'NONE',  ( 0.000000000000000000, 0.000000000000000000, 163.0000000000000000 ) ) ;
#73 = LINE ( 'NONE', #144, #274 ) ;
#74 = DIRECTION ( 'NONE',  ( 0.000000000000000000, 0.000000000000000000, 1.000000000000000000 ) ) ;
#75 = CARTESIAN_POINT ( 'NONE',  ( -5.000000000000000000, 0.000000000000000000, 3.000000000000000000 ) ) ;
#76 = AXIS2_PLACEMENT_3D ( 'NONE', #152, #104, #224 ) ;
#77 = FACE_BOUND ( 'NONE', #16, .T. ) ;
#78 = CARTESIAN_POINT ( 'NONE',  ( 0.000000000000000000, 0.000000000000000000, 163.0000000000000000 ) ) ;
#79 = FACE_OUTER_BOUND ( 'NONE', #90, .T. ) ;
#80 = APPROVAL_PERSON_ORGANIZATION ( #183, #133, #271 ) ;
#81 = APPROVAL ( #70, 'NEURÈENÝ' ) ;
#82 = CARTESIAN_POINT ( 'NONE',  ( 0.000000000000000000, 0.000000000000000000, 3.200000000000008171 ) ) ;
#83 = ADVANCED_FACE ( 'NONE', ( #50 ), #100, .T. ) ;
#84 = FACE_OUTER_BOUND ( 'NONE', #41, .T. ) ;
#85 = CALENDAR_DATE ( 2022, 7, 7 ) ;
#86 = CC_DESIGN_SECURITY_CLASSIFICATION ( #296, ( #289 ) ) ;
#87 = PERSON_AND_ORGANIZATION_ROLE ( 'creator' ) ;
#88 = ORIENTED_EDGE ( 'NONE', *, *, #39, .F. ) ;
#89 = DATE_AND_TIME ( #291, #237 ) ;
#90 = EDGE_LOOP ( 'NONE', ( #135, #235 ) ) ;
#91 = PERSON_AND_ORGANIZATION ( #34, #175 ) ;
#92 = ORIENTED_EDGE ( 'NONE', *, *, #138, .F. ) ;
#93 = CALENDAR_DATE ( 2022, 7, 7 ) ;
#94 = ORIENTED_EDGE ( 'NONE', *, *, #27, .F. ) ;
#95 = AXIS2_PLACEMENT_3D ( 'NONE', #72, #167, #166 ) ;
#96 = DIRECTION ( 'NONE',  ( 0.000000000000000000, 0.000000000000000000, 1.000000000000000000 ) ) ;
#97 = EDGE_CURVE ( 'NONE', #162, #218, #148, .T. ) ;
#98 = CARTESIAN_POINT ( 'NONE',  ( 0.000000000000000000, 0.000000000000000000, 3.000000000000000000 ) ) ;
#99 = CIRCLE ( 'NONE', #9, 2.750000000000000000 ) ;
#100 = CYLINDRICAL_SURFACE ( 'NONE', #8, 2.750000000000000000 ) ;
#101 = DIRECTION ( 'NONE',  ( 0.000000000000000000, 0.000000000000000000, 1.000000000000000000 ) ) ;
#102 = CARTESIAN_POINT ( 'NONE',  ( -5.000000000000000000, 0.000000000000000000, 3.000000000000000000 ) ) ;
#103 = CIRCLE ( 'NONE', #216, 5.000000000000000000 ) ;
#104 = DIRECTION ( 'NONE',  ( 0.000000000000000000, 0.000000000000000000, 1.000000000000000000 ) ) ;
#105 = DIRECTION ( 'NONE',  ( 1.000000000000000000, 0.000000000000000000, 0.000000000000000000 ) ) ;
#106 = DIRECTION ( 'NONE',  ( 0.000000000000000000, 0.000000000000000000, 1.000000000000000000 ) ) ;
#107 = DIRECTION ( 'NONE',  ( -1.000000000000000000, 0.000000000000000000, 0.000000000000000000 ) ) ;
#108 = AXIS2_PLACEMENT_3D ( 'NONE', #30, #60, #120 ) ;
#109 = DIRECTION ( 'NONE',  ( 0.000000000000000000, 0.000000000000000000, 1.000000000000000000 ) ) ;
#110 = APPLICATION_CONTEXT ( 'configuration controlled 3d designs of mechanical parts and assemblies' ) ;
#111 = CC_DESIGN_APPROVAL ( #171, ( #225 ) ) ;
#112 = VERTEX_POINT ( 'NONE', #255 ) ;
#113 = ORIENTED_EDGE ( 'NONE', *, *, #203, .T. ) ;
#114 = EDGE_CURVE ( 'NONE', #218, #162, #99, .T. ) ;
#115 = ORIENTED_EDGE ( 'NONE', *, *, #256, .T. ) ;
#116 = DIRECTION ( 'NONE',  ( 0.000000000000000000, 0.000000000000000000, 1.000000000000000000 ) ) ;
#117 = DIRECTION ( 'NONE',  ( 1.000000000000000000, 0.000000000000000000, 0.000000000000000000 ) ) ;
#118 = PLANE ( 'NONE',  #164 ) ;
#119 = CARTESIAN_POINT ( 'NONE',  ( 0.000000000000000000, 0.000000000000000000, 3.000000000000000000 ) ) ;
#120 = DIRECTION ( 'NONE',  ( -1.000000000000000000, 1.224646799147353207E-16, 0.000000000000000000 ) ) ;
#121 = AXIS2_PLACEMENT_3D ( 'NONE', #192, #101, #117 ) ;
#122 = CARTESIAN_POINT ( 'NONE',  ( 0.000000000000000000, 0.000000000000000000, 3.200000000000008171 ) ) ;
#123 = ADVANCED_FACE ( 'NONE', ( #300 ), #129, .F. ) ;
#124 = FACE_OUTER_BOUND ( 'NONE', #24, .T. ) ;
#125 = AXIS2_PLACEMENT_3D ( 'NONE', #204, #109, #20 ) ;
#126 = PLANE ( 'NONE',  #42 ) ;
#127 = AXIS2_PLACEMENT_3D ( 'NONE', #194, #116, #172 ) ;
#128 = APPROVAL_STATUS ( 'not_yet_approved' ) ;
#129 = TOROIDAL_SURFACE ( 'NONE', #37, 2.949999999999999734, 0.2000000000000000111 ) ;
#130 = ORIENTED_EDGE ( 'NONE', *, *, #114, .F. ) ;
#131 = APPROVAL_ROLE ( '' ) ;
#132 = VECTOR ( 'NONE', #58, 1000.000000000000000 ) ;
#133 = APPROVAL ( #180, 'NEURÈENÝ' ) ;
#134 = APPROVAL_DATE_TIME ( #158, #171 ) ;
#135 = ORIENTED_EDGE ( 'NONE', *, *, #114, .T. ) ;
#136 = PERSON_AND_ORGANIZATION_ROLE ( 'classification_officer' ) ;
#137 = ORIENTED_EDGE ( 'NONE', *, *, #227, .F. ) ;
#138 = EDGE_CURVE ( 'NONE', #273, #182, #179, .T. ) ;
#139 = COORDINATED_UNIVERSAL_TIME_OFFSET ( 1, 0, .AHEAD. ) ;
#140 = ORIENTED_EDGE ( 'NONE', *, *, #3, .F. ) ;
#141 = AXIS2_PLACEMENT_3D ( 'NONE', #122, #106, #226 ) ;
#142 = ORIENTED_EDGE ( 'NONE', *, *, #160, .T. ) ;
#143 = MANIFOLD_SOLID_BREP ( 'Zaoblit1', #18 ) ;
#144 = CARTESIAN_POINT ( 'NONE',  ( -2.750000000000000000, 0.000000000000000000, 163.0000000000000000 ) ) ;
#145 = DIRECTION ( 'NONE',  ( 1.000000000000000000, 0.000000000000000000, 0.000000000000000000 ) ) ;
#146 = ORIENTED_EDGE ( 'NONE', *, *, #65, .F. ) ;
#147 = CARTESIAN_POINT ( 'NONE',  ( 0.000000000000000000, 0.000000000000000000, 3.000000000000000000 ) ) ;
#148 = CIRCLE ( 'NONE', #95, 2.750000000000000000 ) ;
#149 = CARTESIAN_POINT ( 'NONE',  ( 2.750000000000000000, 3.367778697655221012E-16, 163.0000000000000000 ) ) ;
#150 = DIRECTION ( 'NONE',  ( -0.000000000000000000, -0.000000000000000000, -1.000000000000000000 ) ) ;
#151 = DIRECTION ( 'NONE',  ( 0.000000000000000000, -1.000000000000000000, 0.000000000000000000 ) ) ;
#152 = CARTESIAN_POINT ( 'NONE',  ( 0.000000000000000000, 0.000000000000000000, 163.0000000000000000 ) ) ;
#153 = DIRECTION ( 'NONE',  ( 0.000000000000000000, 0.000000000000000000, -1.000000000000000000 ) ) ;
#154 = PERSON_AND_ORGANIZATION ( #34, #175 ) ;
#155 = ORIENTED_EDGE ( 'NONE', *, *, #295, .F. ) ;
#156 = APPLICATION_PROTOCOL_DEFINITION ( 'international standard', 'config_control_design', 1994, #110 ) ;
#157 = CC_DESIGN_PERSON_AND_ORGANIZATION_ASSIGNMENT ( #161, #250, ( #289 ) ) ;
#158 = DATE_AND_TIME ( #64, #193 ) ;
#159 = VERTEX_POINT ( 'NONE', #75 ) ;
#160 = EDGE_CURVE ( 'NONE', #159, #207, #245, .T. ) ;
#161 = PERSON_AND_ORGANIZATION ( #34, #175 ) ;
#162 = VERTEX_POINT ( 'NONE', #56 ) ;
#163 = PERSON_AND_ORGANIZATION_ROLE ( 'design_owner' ) ;
#164 = AXIS2_PLACEMENT_3D ( 'NONE', #168, #257, #215 ) ;
#165 = CC_DESIGN_DATE_AND_TIME_ASSIGNMENT ( #234, #206, ( #296 ) ) ;
#166 = DIRECTION ( 'NONE',  ( 1.000000000000000000, 0.000000000000000000, 0.000000000000000000 ) ) ;
#167 = DIRECTION ( 'NONE',  ( 0.000000000000000000, 0.000000000000000000, 1.000000000000000000 ) ) ;
#168 = CARTESIAN_POINT ( 'NONE',  ( 0.000000000000000000, 0.000000000000000000, 3.000000000000000000 ) ) ;
#169 = ORIENTED_EDGE ( 'NONE', *, *, #10, .T. ) ;
#170 = AXIS2_PLACEMENT_3D ( 'NONE', #25, #188, #214 ) ;
#171 = APPROVAL ( #128, 'NEURÈENÝ' ) ;
#172 = DIRECTION ( 'NONE',  ( 1.000000000000000000, 0.000000000000000000, 0.000000000000000000 ) ) ;
#173 = CIRCLE ( 'NONE', #127, 5.000000000000000000 ) ;
#174 = DIRECTION ( 'NONE',  ( -1.000000000000000000, 0.000000000000000000, 0.000000000000000000 ) ) ;
#175 = ORGANIZATION ( 'NEURÈENÝ', 'NEURÈENÝ', '' ) ;
#176 = CARTESIAN_POINT ( 'NONE',  ( -5.000000000000000000, 0.000000000000000000, 0.000000000000000000 ) ) ;
#177 = FACE_OUTER_BOUND ( 'NONE', #298, .T. ) ;
#178 = SHAPE_DEFINITION_REPRESENTATION ( #297, #230 ) ;
#179 = CIRCLE ( 'NONE', #170, 2.750000000000000000 ) ;
#180 = APPROVAL_STATUS ( 'not_yet_approved' ) ;
#181 = VERTEX_POINT ( 'NONE', #286 ) ;
#182 = VERTEX_POINT ( 'NONE', #198 ) ;
#183 = PERSON_AND_ORGANIZATION ( #34, #175 ) ;
#184 = CIRCLE ( 'NONE', #51, 2.949999999999999734 ) ;
#185 = PERSON_AND_ORGANIZATION ( #34, #175 ) ;
#186 = EDGE_LOOP ( 'NONE', ( #94, #140 ) ) ;
#187 = ADVANCED_FACE ( 'NONE', ( #177 ), #67, .F. ) ;
#188 = DIRECTION ( 'NONE',  ( 0.000000000000000000, 0.000000000000000000, 1.000000000000000000 ) ) ;
#189 = DIRECTION ( 'NONE',  ( -0.000000000000000000, -0.000000000000000000, -1.000000000000000000 ) ) ;
#190 = CIRCLE ( 'NONE', #1, 5.000000000000000000 ) ;
#191 = ADVANCED_FACE ( 'NONE', ( #84 ), #35, .T. ) ;
#192 = CARTESIAN_POINT ( 'NONE',  ( 0.000000000000000000, 0.000000000000000000, 0.000000000000000000 ) ) ;
#193 = LOCAL_TIME ( 14, 43, 45.00000000000000000, #231 ) ;
#194 = CARTESIAN_POINT ( 'NONE',  ( 0.000000000000000000, 0.000000000000000000, 0.000000000000000000 ) ) ;
#195 = CARTESIAN_POINT ( 'NONE',  ( -2.750000000000000000, 0.000000000000000000, 163.0000000000000000 ) ) ;
#196 = CARTESIAN_POINT ( 'NONE',  ( 0.000000000000000000, 0.000000000000000000, 3.000000000000000000 ) ) ;
#197 = CARTESIAN_POINT ( 'NONE',  ( 0.000000000000000000, 0.000000000000000000, 3.000000000000000000 ) ) ;
#198 = CARTESIAN_POINT ( 'NONE',  ( -2.750000000000000000, 0.000000000000000000, 3.200000000000008171 ) ) ;
#199 = APPLICATION_CONTEXT ( 'configuration controlled 3d designs of mechanical parts and assemblies' ) ;
#200 = CC_DESIGN_DATE_AND_TIME_ASSIGNMENT ( #228, #13, ( #225 ) ) ;
#201 = PERSON_AND_ORGANIZATION ( #34, #175 ) ;
#202 = ORIENTED_EDGE ( 'NONE', *, *, #17, .F. ) ;
#203 = EDGE_CURVE ( 'NONE', #273, #305, #31, .T. ) ;
#204 = CARTESIAN_POINT ( 'NONE',  ( 0.000000000000000000, 0.000000000000000000, 0.000000000000000000 ) ) ;
#205 = ORIENTED_EDGE ( 'NONE', *, *, #269, .T. ) ;
#206 = DATE_TIME_ROLE ( 'classification_date' ) ;
#207 = VERTEX_POINT ( 'NONE', #176 ) ;
#208 = CIRCLE ( 'NONE', #141, 2.750000000000000000 ) ;
#209 = EDGE_LOOP ( 'NONE', ( #155, #202, #142, #302 ) ) ;
#210 = CARTESIAN_POINT ( 'NONE',  ( 0.000000000000000000, 0.000000000000000000, 3.000000000000000000 ) ) ;
#211 = DIRECTION ( 'NONE',  ( 0.000000000000000000, 0.000000000000000000, 1.000000000000000000 ) ) ;
#212 = APPROVAL_PERSON_ORGANIZATION ( #185, #81, #252 ) ;
#213 = LOCAL_TIME ( 14, 43, 45.00000000000000000, #139 ) ;
#214 = DIRECTION ( 'NONE',  ( 1.000000000000000000, 0.000000000000000000, 0.000000000000000000 ) ) ;
#215 = DIRECTION ( 'NONE',  ( 1.000000000000000000, 0.000000000000000000, -0.000000000000000000 ) ) ;
#216 = AXIS2_PLACEMENT_3D ( 'NONE', #98, #96, #280 ) ;
#217 = UNCERTAINTY_MEASURE_WITH_UNIT (LENGTH_MEASURE( 1.000000000000000082E-05 ), #243, 'distance_accuracy_value', 'NONE');
#218 = VERTEX_POINT ( 'NONE', #195 ) ;
#219 =( GEOMETRIC_REPRESENTATION_CONTEXT ( 3 ) GLOBAL_UNCERTAINTY_ASSIGNED_CONTEXT ( ( #217 ) ) GLOBAL_UNIT_ASSIGNED_CONTEXT ( ( #243, #264, #290 ) ) REPRESENTATION_CONTEXT ( 'NONE', 'WORKASPACE' ) );
#220 = DIRECTION ( 'NONE',  ( 0.000000000000000000, 0.000000000000000000, 1.000000000000000000 ) ) ;
#221 = EDGE_CURVE ( 'NONE', #182, #273, #208, .T. ) ;
#222 = CARTESIAN_POINT ( 'NONE',  ( 2.750000000000000000, 3.367778697655221012E-16, 3.200000000000008171 ) ) ;
#223 = CYLINDRICAL_SURFACE ( 'NONE', #12, 5.000000000000000000 ) ;
#224 = DIRECTION ( 'NONE',  ( 1.000000000000000000, 0.000000000000000000, -0.000000000000000000 ) ) ;
#225 = PRODUCT_DEFINITION ( 'NEZNÁMÝ', '', #289, #54 ) ;
#226 = DIRECTION ( 'NONE',  ( 1.000000000000000000, 0.000000000000000000, 0.000000000000000000 ) ) ;
#227 = EDGE_CURVE ( 'NONE', #162, #273, #282, .T. ) ;
#228 = DATE_AND_TIME ( #93, #213 ) ;
#229 = AXIS2_PLACEMENT_3D ( 'NONE', #78, #262, #174 ) ;
#230 = ADVANCED_BREP_SHAPE_REPRESENTATION ( 'de50', ( #143, #125 ), #219 ) ;
#231 = COORDINATED_UNIVERSAL_TIME_OFFSET ( 1, 0, .AHEAD. ) ;
#232 = CC_DESIGN_PERSON_AND_ORGANIZATION_ASSIGNMENT ( #154, #136, ( #296 ) ) ;
#233 = PRODUCT ( 'de50', 'de50', '', ( #19 ) ) ;
#234 = DATE_AND_TIME ( #85, #306 ) ;
#235 = ORIENTED_EDGE ( 'NONE', *, *, #97, .T. ) ;
#236 = CALENDAR_DATE ( 2022, 7, 7 ) ;
#237 = LOCAL_TIME ( 14, 43, 45.00000000000000000, #249 ) ;
#238 = EDGE_LOOP ( 'NONE', ( #21, #92, #113, #44 ) ) ;
#239 = ORIENTED_EDGE ( 'NONE', *, *, #138, .T. ) ;
#240 = DIRECTION ( 'NONE',  ( -1.000000000000000000, 0.000000000000000000, 0.000000000000000000 ) ) ;
#241 = ORIENTED_EDGE ( 'NONE', *, *, #221, .F. ) ;
#242 = DIRECTION ( 'NONE',  ( -0.000000000000000000, -0.000000000000000000, -1.000000000000000000 ) ) ;
#243 =( LENGTH_UNIT ( ) NAMED_UNIT ( * ) SI_UNIT ( .MILLI., .METRE. ) );
#244 = CARTESIAN_POINT ( 'NONE',  ( 0.000000000000000000, 0.000000000000000000, 0.000000000000000000 ) ) ;
#245 = LINE ( 'NONE', #102, #57 ) ;
#246 = ADVANCED_FACE ( 'NONE', ( #124 ), #223, .T. ) ;
#247 = DIRECTION ( 'NONE',  ( -0.000000000000000000, -0.000000000000000000, -1.000000000000000000 ) ) ;
#248 = ORIENTED_EDGE ( 'NONE', *, *, #295, .T. ) ;
#249 = COORDINATED_UNIVERSAL_TIME_OFFSET ( 1, 0, .AHEAD. ) ;
#250 = PERSON_AND_ORGANIZATION_ROLE ( 'design_supplier' ) ;
#251 = ORIENTED_EDGE ( 'NONE', *, *, #203, .F. ) ;
#252 = APPROVAL_ROLE ( '' ) ;
#253 = DIRECTION ( 'NONE',  ( 1.000000000000000000, 0.000000000000000000, 0.000000000000000000 ) ) ;
#254 = CIRCLE ( 'NONE', #108, 0.2000000000000000944 ) ;
#255 = CARTESIAN_POINT ( 'NONE',  ( -2.949999999999999734, 3.612708057484692097E-16, 3.000000000000004441 ) ) ;
#256 = EDGE_CURVE ( 'NONE', #112, #305, #184, .T. ) ;
#257 = DIRECTION ( 'NONE',  ( 0.000000000000000000, 0.000000000000000000, 1.000000000000000000 ) ) ;
#258 = ORIENTED_EDGE ( 'NONE', *, *, #39, .T. ) ;
#259 = APPROVAL_PERSON_ORGANIZATION ( #293, #171, #131 ) ;
#260 = DIRECTION ( 'NONE',  ( 1.000000000000000000, 0.000000000000000000, 0.000000000000000000 ) ) ;
#261 = ADVANCED_FACE ( 'NONE', ( #265 ), #126, .F. ) ;
#262 = DIRECTION ( 'NONE',  ( -0.000000000000000000, -0.000000000000000000, -1.000000000000000000 ) ) ;
#263 = AXIS2_PLACEMENT_3D ( 'NONE', #4, #151, #153 ) ;
#264 =( NAMED_UNIT ( * ) PLANE_ANGLE_UNIT ( ) SI_UNIT ( $, .RADIAN. ) );
#265 = FACE_OUTER_BOUND ( 'NONE', #186, .T. ) ;
#266 = DIRECTION ( 'NONE',  ( 0.000000000000000000, 0.000000000000000000, 1.000000000000000000 ) ) ;
#267 = AXIS2_PLACEMENT_3D ( 'NONE', #196, #307, #107 ) ;
#268 = DATE_AND_TIME ( #236, #62 ) ;
#269 = EDGE_CURVE ( 'NONE', #182, #112, #254, .T. ) ;
#270 = ORIENTED_EDGE ( 'NONE', *, *, #97, .F. ) ;
#271 = APPROVAL_ROLE ( '' ) ;
#272 = CC_DESIGN_PERSON_AND_ORGANIZATION_ASSIGNMENT ( #66, #163, ( #233 ) ) ;
#273 = VERTEX_POINT ( 'NONE', #222 ) ;
#274 = VECTOR ( 'NONE', #52, 1000.000000000000000 ) ;
#275 = FACE_OUTER_BOUND ( 'NONE', #294, .T. ) ;
#276 = CC_DESIGN_APPROVAL ( #81, ( #296 ) ) ;
#277 = ADVANCED_FACE ( 'NONE', ( #79 ), #2, .T. ) ;
#278 = CARTESIAN_POINT ( 'NONE',  ( 0.000000000000000000, 0.000000000000000000, 3.200000000000008171 ) ) ;
#279 = DIRECTION ( 'NONE',  ( 1.000000000000000000, 0.000000000000000000, 0.000000000000000000 ) ) ;
#280 = DIRECTION ( 'NONE',  ( 1.000000000000000000, 0.000000000000000000, 0.000000000000000000 ) ) ;
#281 = CC_DESIGN_APPROVAL ( #133, ( #289 ) ) ;
#282 = LINE ( 'NONE', #149, #132 ) ;
#283 = DIRECTION ( 'NONE',  ( -1.000000000000000000, 0.000000000000000000, 0.000000000000000000 ) ) ;
#284 = PRODUCT_RELATED_PRODUCT_CATEGORY ( 'detail', '', ( #233 ) ) ;
#285 = CARTESIAN_POINT ( 'NONE',  ( 2.949999999999999734, 0.000000000000000000, 3.000000000000004441 ) ) ;
#286 = CARTESIAN_POINT ( 'NONE',  ( 5.000000000000000000, 6.123233995736766282E-16, 0.000000000000000000 ) ) ;
#287 = DIRECTION ( 'NONE',  ( -0.000000000000000000, -0.000000000000000000, -1.000000000000000000 ) ) ;
#288 = APPROVAL_DATE_TIME ( #268, #81 ) ;
#289 = PRODUCT_DEFINITION_FORMATION_WITH_SPECIFIED_SOURCE ( 'LIBOVOLNÝ', '', #233, .NOT_KNOWN. ) ;
#290 =( NAMED_UNIT ( * ) SI_UNIT ( $, .STERADIAN. ) SOLID_ANGLE_UNIT ( ) );
#291 = CALENDAR_DATE ( 2022, 7, 7 ) ;
#292 = ORIENTED_EDGE ( 'NONE', *, *, #221, .T. ) ;
#293 = PERSON_AND_ORGANIZATION ( #34, #175 ) ;
#294 = EDGE_LOOP ( 'NONE', ( #14, #169 ) ) ;
#295 = EDGE_CURVE ( 'NONE', #69, #181, #6, .T. ) ;
#296 = SECURITY_CLASSIFICATION ( '', '', #43 ) ;
#297 = PRODUCT_DEFINITION_SHAPE ( 'NONE', 'NONE',  #225 ) ;
#298 = EDGE_LOOP ( 'NONE', ( #241, #205, #88, #251 ) ) ;
#299 = DIRECTION ( 'NONE',  ( 0.000000000000000000, 0.000000000000000000, 1.000000000000000000 ) ) ;
#300 = FACE_OUTER_BOUND ( 'NONE', #238, .T. ) ;
#301 = VECTOR ( 'NONE', #61, 1000.000000000000000 ) ;
#302 = ORIENTED_EDGE ( 'NONE', *, *, #27, .T. ) ;
#303 = CARTESIAN_POINT ( 'NONE',  ( 0.000000000000000000, 0.000000000000000000, 163.0000000000000000 ) ) ;
#304 = ADVANCED_FACE ( 'NONE', ( #38 ), #7, .T. ) ;
#305 = VERTEX_POINT ( 'NONE', #285 ) ;
#306 = LOCAL_TIME ( 14, 43, 45.00000000000000000, #40 ) ;
#307 = DIRECTION ( 'NONE',  ( -0.000000000000000000, -0.000000000000000000, -1.000000000000000000 ) ) ;
ENDSEC;
END-ISO-10303-21;
