ISO-10303-21;
HEADER;
FILE_DESCRIPTION (( 'STEP AP203' ),
    '1' );
FILE_NAME ('0176.STEP',
    '2022-07-07T12:50:52',
    ( '' ),
    ( '' ),
    'SwSTEP 2.0',
    'SolidWorks 2019',
    '' );
FILE_SCHEMA (( 'CONFIG_CONTROL_DESIGN' ));
ENDSEC;

DATA;
#1 =( NAMED_UNIT ( * ) SI_UNIT ( $, .STERADIAN. ) SOLID_ANGLE_UNIT ( ) );
#2 = PRODUCT_RELATED_PRODUCT_CATEGORY ( 'detail', '', ( #95 ) ) ;
#3 = DIRECTION ( 'NONE',  ( -0.000000000000000000, -0.000000000000000000, -1.000000000000000000 ) ) ;
#4 = CARTESIAN_POINT ( 'NONE',  ( 0.000000000000000000, 0.000000000000000000, 0.000000000000000000 ) ) ;
#5 = ORIENTED_EDGE ( 'NONE', *, *, #228, .T. ) ;
#6 = CARTESIAN_POINT ( 'NONE',  ( 0.000000000000000000, 0.000000000000000000, 3.000000000000000000 ) ) ;
#7 = AXIS2_PLACEMENT_3D ( 'NONE', #240, #79, #56 ) ;
#8 = DIRECTION ( 'NONE',  ( 0.000000000000000000, 0.000000000000000000, -1.000000000000000000 ) ) ;
#9 = ADVANCED_FACE ( 'NONE', ( #227 ), #31, .F. ) ;
#10 = CARTESIAN_POINT ( 'NONE',  ( -2.200000000000000178, 2.694222958124177006E-16, 3.199999999999980638 ) ) ;
#11 = ORIENTED_EDGE ( 'NONE', *, *, #55, .T. ) ;
#12 = AXIS2_PLACEMENT_3D ( 'NONE', #253, #295, #83 ) ;
#13 = VERTEX_POINT ( 'NONE', #43 ) ;
#14 = ORIENTED_EDGE ( 'NONE', *, *, #195, .F. ) ;
#15 = EDGE_CURVE ( 'NONE', #156, #292, #216, .T. ) ;
#16 = CYLINDRICAL_SURFACE ( 'NONE', #70, 2.000000000000000000 ) ;
#17 = DIRECTION ( 'NONE',  ( 0.000000000000000000, 0.000000000000000000, 1.000000000000000000 ) ) ;
#18 = CARTESIAN_POINT ( 'NONE',  ( 0.000000000000000000, 0.000000000000000000, 0.000000000000000000 ) ) ;
#19 = APPROVAL ( #210, 'NEURÈENÝ' ) ;
#20 = DIRECTION ( 'NONE',  ( 1.000000000000000000, 0.000000000000000000, 0.000000000000000000 ) ) ;
#21 = EDGE_CURVE ( 'NONE', #151, #149, #58, .T. ) ;
#22 = APPROVAL_STATUS ( 'not_yet_approved' ) ;
#23 = FACE_OUTER_BOUND ( 'NONE', #91, .T. ) ;
#24 = SECURITY_CLASSIFICATION_LEVEL ( 'unclassified' ) ;
#25 = CARTESIAN_POINT ( 'NONE',  ( 0.000000000000000000, 0.000000000000000000, 3.000000000000000000 ) ) ;
#26 = APPROVAL_DATE_TIME ( #191, #19 ) ;
#27 = CC_DESIGN_PERSON_AND_ORGANIZATION_ASSIGNMENT ( #287, #34, ( #95 ) ) ;
#28 = CIRCLE ( 'NONE', #161, 2.200000000000000178 ) ;
#29 = DATE_AND_TIME ( #169, #35 ) ;
#30 = PERSON_AND_ORGANIZATION ( #100, #109 ) ;
#31 = TOROIDAL_SURFACE ( 'NONE', #90, 2.200000000000000178, 0.2000000000000000111 ) ;
#32 = CARTESIAN_POINT ( 'NONE',  ( 2.000000000000000000, 2.449293598294706414E-16, 3.199999999999980638 ) ) ;
#33 = ADVANCED_FACE ( 'NONE', ( #225 ), #16, .T. ) ;
#34 = PERSON_AND_ORGANIZATION_ROLE ( 'design_owner' ) ;
#35 = LOCAL_TIME ( 14, 50, 52.00000000000000000, #167 ) ;
#36 =( LENGTH_UNIT ( ) NAMED_UNIT ( * ) SI_UNIT ( .MILLI., .METRE. ) );
#37 = ORIENTED_EDGE ( 'NONE', *, *, #207, .T. ) ;
#38 = CARTESIAN_POINT ( 'NONE',  ( -2.200000000000000178, 2.694222958124177006E-16, 2.999999999999990674 ) ) ;
#39 = LOCAL_TIME ( 14, 50, 52.00000000000000000, #52 ) ;
#40 = CARTESIAN_POINT ( 'NONE',  ( 0.000000000000000000, 0.000000000000000000, 318.0000000000000000 ) ) ;
#41 = ORIENTED_EDGE ( 'NONE', *, *, #219, .F. ) ;
#42 = ORIENTED_EDGE ( 'NONE', *, *, #207, .F. ) ;
#43 = CARTESIAN_POINT ( 'NONE',  ( 2.200000000000000178, 0.000000000000000000, 2.999999999999990674 ) ) ;
#44 = ORIENTED_EDGE ( 'NONE', *, *, #110, .F. ) ;
#45 = CARTESIAN_POINT ( 'NONE',  ( 2.200000000000000178, 0.000000000000000000, 3.199999999999980638 ) ) ;
#46 = CARTESIAN_POINT ( 'NONE',  ( -2.000000000000000000, 0.000000000000000000, 318.0000000000000000 ) ) ;
#47 = DIRECTION ( 'NONE',  ( 0.000000000000000000, 0.000000000000000000, 1.000000000000000000 ) ) ;
#48 = CC_DESIGN_APPROVAL ( #141, ( #307 ) ) ;
#49 = CALENDAR_DATE ( 2022, 7, 7 ) ;
#50 = DIRECTION ( 'NONE',  ( 0.000000000000000000, 0.000000000000000000, 1.000000000000000000 ) ) ;
#51 = AXIS2_PLACEMENT_3D ( 'NONE', #98, #187, #281 ) ;
#52 = COORDINATED_UNIVERSAL_TIME_OFFSET ( 1, 0, .AHEAD. ) ;
#53 = APPLICATION_PROTOCOL_DEFINITION ( 'international standard', 'config_control_design', 1994, #252 ) ;
#54 = LOCAL_TIME ( 14, 50, 52.00000000000000000, #188 ) ;
#55 = EDGE_CURVE ( 'NONE', #292, #13, #241, .T. ) ;
#56 = DIRECTION ( 'NONE',  ( 1.000000000000000000, 0.000000000000000000, 0.000000000000000000 ) ) ;
#57 = ORIENTED_EDGE ( 'NONE', *, *, #15, .T. ) ;
#58 = CIRCLE ( 'NONE', #12, 4.000000000000000000 ) ;
#59 = ORIENTED_EDGE ( 'NONE', *, *, #283, .T. ) ;
#60 = CIRCLE ( 'NONE', #189, 4.000000000000000000 ) ;
#61 = LINE ( 'NONE', #155, #303 ) ;
#62 = CC_DESIGN_DATE_AND_TIME_ASSIGNMENT ( #29, #121, ( #78 ) ) ;
#63 = DIRECTION ( 'NONE',  ( -1.000000000000000000, 1.224646799147353207E-16, 0.000000000000000000 ) ) ;
#64 = ORIENTED_EDGE ( 'NONE', *, *, #234, .F. ) ;
#65 = DIRECTION ( 'NONE',  ( -0.000000000000000000, -0.000000000000000000, -1.000000000000000000 ) ) ;
#66 = CIRCLE ( 'NONE', #203, 2.000000000000000000 ) ;
#67 = ADVANCED_FACE ( 'NONE', ( #296 ), #183, .T. ) ;
#68 = CARTESIAN_POINT ( 'NONE',  ( -4.000000000000000000, 0.000000000000000000, 0.000000000000000000 ) ) ;
#69 = FACE_OUTER_BOUND ( 'NONE', #249, .T. ) ;
#70 = AXIS2_PLACEMENT_3D ( 'NONE', #182, #89, #247 ) ;
#71 = DATE_AND_TIME ( #236, #271 ) ;
#72 = DIRECTION ( 'NONE',  ( -1.000000000000000000, 0.000000000000000000, 0.000000000000000000 ) ) ;
#73 = AXIS2_PLACEMENT_3D ( 'NONE', #164, #138, #20 ) ;
#74 = AXIS2_PLACEMENT_3D ( 'NONE', #206, #230, #72 ) ;
#75 = APPROVAL_ROLE ( '' ) ;
#76 = DIRECTION ( 'NONE',  ( 0.000000000000000000, 0.000000000000000000, 1.000000000000000000 ) ) ;
#77 = PERSON_AND_ORGANIZATION_ROLE ( 'classification_officer' ) ;
#78 = SECURITY_CLASSIFICATION ( '', '', #24 ) ;
#79 = DIRECTION ( 'NONE',  ( 0.000000000000000000, 0.000000000000000000, 1.000000000000000000 ) ) ;
#80 = ADVANCED_FACE ( 'NONE', ( #135 ), #111, .T. ) ;
#81 = LINE ( 'NONE', #173, #238 ) ;
#82 = DIRECTION ( 'NONE',  ( 1.000000000000000000, 0.000000000000000000, 0.000000000000000000 ) ) ;
#83 = DIRECTION ( 'NONE',  ( 1.000000000000000000, 0.000000000000000000, 0.000000000000000000 ) ) ;
#84 = AXIS2_PLACEMENT_3D ( 'NONE', #268, #273, #291 ) ;
#85 = DIRECTION ( 'NONE',  ( 1.000000000000000000, 0.000000000000000000, -0.000000000000000000 ) ) ;
#86 = TOROIDAL_SURFACE ( 'NONE', #147, 2.200000000000000178, 0.2000000000000000111 ) ;
#87 = CC_DESIGN_PERSON_AND_ORGANIZATION_ASSIGNMENT ( #30, #212, ( #307 ) ) ;
#88 = ORIENTED_EDGE ( 'NONE', *, *, #21, .F. ) ;
#89 = DIRECTION ( 'NONE',  ( -0.000000000000000000, -0.000000000000000000, -1.000000000000000000 ) ) ;
#90 = AXIS2_PLACEMENT_3D ( 'NONE', #250, #289, #272 ) ;
#91 = EDGE_LOOP ( 'NONE', ( #293, #42, #246, #177 ) ) ;
#92 = DIRECTION ( 'NONE',  ( 1.000000000000000000, 0.000000000000000000, 0.000000000000000000 ) ) ;
#93 = AXIS2_PLACEMENT_3D ( 'NONE', #4, #196, #104 ) ;
#94 = DIRECTION ( 'NONE',  ( 1.000000000000000000, 0.000000000000000000, 0.000000000000000000 ) ) ;
#95 = PRODUCT ( '0176', '0176', '', ( #263 ) ) ;
#96 = APPROVAL_DATE_TIME ( #71, #265 ) ;
#97 = CALENDAR_DATE ( 2022, 7, 7 ) ;
#98 = CARTESIAN_POINT ( 'NONE',  ( 0.000000000000000000, 0.000000000000000000, 318.0000000000000000 ) ) ;
#99 = APPROVAL_ROLE ( '' ) ;
#100 = PERSON ( 'NEURÈENÝ', 'NEURÈENÝ', 'NEURÈENÝ', ('NEURÈENÝ'), ('NEURÈENÝ'), ('NEURÈENÝ') ) ;
#101 = COORDINATED_UNIVERSAL_TIME_OFFSET ( 1, 0, .AHEAD. ) ;
#102 = DIRECTION ( 'NONE',  ( -0.000000000000000000, -0.000000000000000000, -1.000000000000000000 ) ) ;
#103 = APPLICATION_PROTOCOL_DEFINITION ( 'international standard', 'config_control_design', 1994, #117 ) ;
#104 = DIRECTION ( 'NONE',  ( 1.000000000000000000, 0.000000000000000000, 0.000000000000000000 ) ) ;
#105 = VERTEX_POINT ( 'NONE', #270 ) ;
#106 = ORIENTED_EDGE ( 'NONE', *, *, #15, .F. ) ;
#107 = ORIENTED_EDGE ( 'NONE', *, *, #174, .F. ) ;
#108 = EDGE_LOOP ( 'NONE', ( #64, #222, #59, #251 ) ) ;
#109 = ORGANIZATION ( 'NEURÈENÝ', 'NEURÈENÝ', '' ) ;
#110 = EDGE_CURVE ( 'NONE', #274, #13, #264, .T. ) ;
#111 = CYLINDRICAL_SURFACE ( 'NONE', #131, 4.000000000000000000 ) ;
#112 = CYLINDRICAL_SURFACE ( 'NONE', #74, 2.000000000000000000 ) ;
#113 = CARTESIAN_POINT ( 'NONE',  ( 0.000000000000000000, 0.000000000000000000, 3.199999999999980638 ) ) ;
#114 = CIRCLE ( 'NONE', #73, 4.000000000000000000 ) ;
#115 = CALENDAR_DATE ( 2022, 7, 7 ) ;
#116 = DIRECTION ( 'NONE',  ( 1.000000000000000000, 0.000000000000000000, 0.000000000000000000 ) ) ;
#117 = APPLICATION_CONTEXT ( 'configuration controlled 3d designs of mechanical parts and assemblies' ) ;
#118 = FACE_OUTER_BOUND ( 'NONE', #286, .T. ) ;
#119 = SHAPE_DEFINITION_REPRESENTATION ( #237, #137 ) ;
#120 = AXIS2_PLACEMENT_3D ( 'NONE', #277, #50, #279 ) ;
#121 = DATE_TIME_ROLE ( 'classification_date' ) ;
#122 = AXIS2_PLACEMENT_3D ( 'NONE', #198, #146, #82 ) ;
#123 = EDGE_CURVE ( 'NONE', #151, #178, #61, .T. ) ;
#124 = PERSON_AND_ORGANIZATION ( #100, #109 ) ;
#125 = ORIENTED_EDGE ( 'NONE', *, *, #300, .F. ) ;
#126 = DIRECTION ( 'NONE',  ( -0.000000000000000000, -0.000000000000000000, -1.000000000000000000 ) ) ;
#127 = LOCAL_TIME ( 14, 50, 52.00000000000000000, #239 ) ;
#128 = EDGE_LOOP ( 'NONE', ( #88, #130, #220, #107 ) ) ;
#129 = ORIENTED_EDGE ( 'NONE', *, *, #261, .F. ) ;
#130 = ORIENTED_EDGE ( 'NONE', *, *, #123, .T. ) ;
#131 = AXIS2_PLACEMENT_3D ( 'NONE', #176, #65, #162 ) ;
#132 = EDGE_LOOP ( 'NONE', ( #37, #181 ) ) ;
#133 = ADVANCED_FACE ( 'NONE', ( #118 ), #142, .F. ) ;
#134 = AXIS2_PLACEMENT_3D ( 'NONE', #6, #102, #284 ) ;
#135 = FACE_OUTER_BOUND ( 'NONE', #205, .T. ) ;
#136 = DIRECTION ( 'NONE',  ( 0.000000000000000000, -1.000000000000000000, 0.000000000000000000 ) ) ;
#137 = ADVANCED_BREP_SHAPE_REPRESENTATION ( '0176', ( #256, #93 ), #231 ) ;
#138 = DIRECTION ( 'NONE',  ( 0.000000000000000000, 0.000000000000000000, 1.000000000000000000 ) ) ;
#139 = CC_DESIGN_PERSON_AND_ORGANIZATION_ASSIGNMENT ( #192, #143, ( #170 ) ) ;
#140 = LINE ( 'NONE', #299, #193 ) ;
#141 = APPROVAL ( #148, 'NEURÈENÝ' ) ;
#142 = PLANE ( 'NONE',  #171 ) ;
#143 = PERSON_AND_ORGANIZATION_ROLE ( 'design_supplier' ) ;
#144 = CIRCLE ( 'NONE', #122, 2.000000000000000000 ) ;
#145 = DATE_AND_TIME ( #49, #127 ) ;
#146 = DIRECTION ( 'NONE',  ( 0.000000000000000000, 0.000000000000000000, 1.000000000000000000 ) ) ;
#147 = AXIS2_PLACEMENT_3D ( 'NONE', #113, #258, #92 ) ;
#148 = APPROVAL_STATUS ( 'not_yet_approved' ) ;
#149 = VERTEX_POINT ( 'NONE', #297 ) ;
#150 = AXIS2_PLACEMENT_3D ( 'NONE', #10, #204, #63 ) ;
#151 = VERTEX_POINT ( 'NONE', #229 ) ;
#152 = ADVANCED_FACE ( 'NONE', ( #23 ), #112, .T. ) ;
#153 = EDGE_LOOP ( 'NONE', ( #157, #11 ) ) ;
#154 = EDGE_LOOP ( 'NONE', ( #125, #57, #129, #44 ) ) ;
#155 = CARTESIAN_POINT ( 'NONE',  ( 4.000000000000000000, 4.898587196589412829E-16, 3.000000000000000000 ) ) ;
#156 = VERTEX_POINT ( 'NONE', #211 ) ;
#157 = ORIENTED_EDGE ( 'NONE', *, *, #261, .T. ) ;
#158 = ORIENTED_EDGE ( 'NONE', *, *, #21, .T. ) ;
#159 = ADVANCED_FACE ( 'NONE', ( #165 ), #86, .F. ) ;
#160 = VERTEX_POINT ( 'NONE', #46 ) ;
#161 = AXIS2_PLACEMENT_3D ( 'NONE', #285, #126, #218 ) ;
#162 = DIRECTION ( 'NONE',  ( -1.000000000000000000, 0.000000000000000000, 0.000000000000000000 ) ) ;
#163 = CARTESIAN_POINT ( 'NONE',  ( 4.000000000000000000, 4.898587196589412829E-16, 0.000000000000000000 ) ) ;
#164 = CARTESIAN_POINT ( 'NONE',  ( 0.000000000000000000, 0.000000000000000000, 0.000000000000000000 ) ) ;
#165 = FACE_OUTER_BOUND ( 'NONE', #154, .T. ) ;
#166 = CC_DESIGN_SECURITY_CLASSIFICATION ( #78, ( #170 ) ) ;
#167 = COORDINATED_UNIVERSAL_TIME_OFFSET ( 1, 0, .AHEAD. ) ;
#168 = DIRECTION ( 'NONE',  ( 1.000000000000000000, 0.000000000000000000, -0.000000000000000000 ) ) ;
#169 = CALENDAR_DATE ( 2022, 7, 7 ) ;
#170 = PRODUCT_DEFINITION_FORMATION_WITH_SPECIFIED_SOURCE ( 'LIBOVOLNÝ', '', #95, .NOT_KNOWN. ) ;
#171 = AXIS2_PLACEMENT_3D ( 'NONE', #18, #302, #254 ) ;
#172 = FACE_OUTER_BOUND ( 'NONE', #128, .T. ) ;
#173 = CARTESIAN_POINT ( 'NONE',  ( -2.000000000000000000, 0.000000000000000000, 318.0000000000000000 ) ) ;
#174 = EDGE_CURVE ( 'NONE', #149, #175, #184, .T. ) ;
#175 = VERTEX_POINT ( 'NONE', #68 ) ;
#176 = CARTESIAN_POINT ( 'NONE',  ( 0.000000000000000000, 0.000000000000000000, 3.000000000000000000 ) ) ;
#177 = ORIENTED_EDGE ( 'NONE', *, *, #300, .T. ) ;
#178 = VERTEX_POINT ( 'NONE', #163 ) ;
#179 = VECTOR ( 'NONE', #209, 1000.000000000000000 ) ;
#180 = EDGE_CURVE ( 'NONE', #105, #274, #140, .T. ) ;
#181 = ORIENTED_EDGE ( 'NONE', *, *, #234, .T. ) ;
#182 = CARTESIAN_POINT ( 'NONE',  ( 0.000000000000000000, 0.000000000000000000, 318.0000000000000000 ) ) ;
#183 = PLANE ( 'NONE',  #186 ) ;
#184 = LINE ( 'NONE', #276, #179 ) ;
#185 = CARTESIAN_POINT ( 'NONE',  ( 0.000000000000000000, 0.000000000000000000, 0.000000000000000000 ) ) ;
#186 = AXIS2_PLACEMENT_3D ( 'NONE', #40, #17, #85 ) ;
#187 = DIRECTION ( 'NONE',  ( 0.000000000000000000, 0.000000000000000000, 1.000000000000000000 ) ) ;
#188 = COORDINATED_UNIVERSAL_TIME_OFFSET ( 1, 0, .AHEAD. ) ;
#189 = AXIS2_PLACEMENT_3D ( 'NONE', #185, #235, #116 ) ;
#190 = CARTESIAN_POINT ( 'NONE',  ( 0.000000000000000000, 0.000000000000000000, 318.0000000000000000 ) ) ;
#191 = DATE_AND_TIME ( #97, #39 ) ;
#192 = PERSON_AND_ORGANIZATION ( #100, #109 ) ;
#193 = VECTOR ( 'NONE', #305, 1000.000000000000000 ) ;
#194 = CC_DESIGN_PERSON_AND_ORGANIZATION_ASSIGNMENT ( #232, #215, ( #170 ) ) ;
#195 = EDGE_CURVE ( 'NONE', #178, #175, #114, .T. ) ;
#196 = DIRECTION ( 'NONE',  ( 0.000000000000000000, 0.000000000000000000, 1.000000000000000000 ) ) ;
#197 = AXIS2_PLACEMENT_3D ( 'NONE', #45, #136, #8 ) ;
#198 = CARTESIAN_POINT ( 'NONE',  ( 0.000000000000000000, 0.000000000000000000, 3.199999999999980638 ) ) ;
#199 = CC_DESIGN_PERSON_AND_ORGANIZATION_ASSIGNMENT ( #301, #77, ( #78 ) ) ;
#200 = ORIENTED_EDGE ( 'NONE', *, *, #110, .T. ) ;
#201 = ORIENTED_EDGE ( 'NONE', *, *, #228, .F. ) ;
#202 = ORIENTED_EDGE ( 'NONE', *, *, #283, .F. ) ;
#203 = AXIS2_PLACEMENT_3D ( 'NONE', #190, #47, #94 ) ;
#204 = DIRECTION ( 'NONE',  ( 1.224646799147353207E-16, 1.000000000000000000, -0.000000000000000000 ) ) ;
#205 = EDGE_LOOP ( 'NONE', ( #267, #201, #245, #224 ) ) ;
#206 = CARTESIAN_POINT ( 'NONE',  ( 0.000000000000000000, 0.000000000000000000, 318.0000000000000000 ) ) ;
#207 = EDGE_CURVE ( 'NONE', #160, #105, #66, .T. ) ;
#208 = CC_DESIGN_APPROVAL ( #19, ( #170 ) ) ;
#209 = DIRECTION ( 'NONE',  ( -0.000000000000000000, -0.000000000000000000, -1.000000000000000000 ) ) ;
#210 = APPROVAL_STATUS ( 'not_yet_approved' ) ;
#211 = CARTESIAN_POINT ( 'NONE',  ( -2.000000000000000000, 0.000000000000000000, 3.199999999999980638 ) ) ;
#212 = PERSON_AND_ORGANIZATION_ROLE ( 'creator' ) ;
#213 = DIRECTION ( 'NONE',  ( -0.000000000000000000, -0.000000000000000000, -1.000000000000000000 ) ) ;
#214 = UNCERTAINTY_MEASURE_WITH_UNIT (LENGTH_MEASURE( 1.000000000000000082E-05 ), #36, 'distance_accuracy_value', 'NONE');
#215 = PERSON_AND_ORGANIZATION_ROLE ( 'creator' ) ;
#216 = CIRCLE ( 'NONE', #150, 0.2000000000000000944 ) ;
#217 = CC_DESIGN_APPROVAL ( #265, ( #78 ) ) ;
#218 = DIRECTION ( 'NONE',  ( 1.000000000000000000, 0.000000000000000000, 0.000000000000000000 ) ) ;
#219 = EDGE_CURVE ( 'NONE', #175, #178, #60, .T. ) ;
#220 = ORIENTED_EDGE ( 'NONE', *, *, #195, .T. ) ;
#221 = CYLINDRICAL_SURFACE ( 'NONE', #134, 4.000000000000000000 ) ;
#222 = ORIENTED_EDGE ( 'NONE', *, *, #180, .T. ) ;
#223 = EDGE_LOOP ( 'NONE', ( #106, #202, #200, #248 ) ) ;
#224 = ORIENTED_EDGE ( 'NONE', *, *, #219, .T. ) ;
#225 = FACE_OUTER_BOUND ( 'NONE', #108, .T. ) ;
#226 = APPROVAL_PERSON_ORGANIZATION ( #280, #19, #99 ) ;
#227 = FACE_OUTER_BOUND ( 'NONE', #223, .T. ) ;
#228 = EDGE_CURVE ( 'NONE', #149, #151, #298, .T. ) ;
#229 = CARTESIAN_POINT ( 'NONE',  ( 4.000000000000000000, 4.898587196589412829E-16, 3.000000000000000000 ) ) ;
#230 = DIRECTION ( 'NONE',  ( -0.000000000000000000, -0.000000000000000000, -1.000000000000000000 ) ) ;
#231 =( GEOMETRIC_REPRESENTATION_CONTEXT ( 3 ) GLOBAL_UNCERTAINTY_ASSIGNED_CONTEXT ( ( #214 ) ) GLOBAL_UNIT_ASSIGNED_CONTEXT ( ( #36, #266, #1 ) ) REPRESENTATION_CONTEXT ( 'NONE', 'WORKASPACE' ) );
#232 = PERSON_AND_ORGANIZATION ( #100, #109 ) ;
#233 = PLANE ( 'NONE',  #242 ) ;
#234 = EDGE_CURVE ( 'NONE', #105, #160, #288, .T. ) ;
#235 = DIRECTION ( 'NONE',  ( 0.000000000000000000, 0.000000000000000000, 1.000000000000000000 ) ) ;
#236 = CALENDAR_DATE ( 2022, 7, 7 ) ;
#237 = PRODUCT_DEFINITION_SHAPE ( 'NONE', 'NONE',  #307 ) ;
#238 = VECTOR ( 'NONE', #3, 1000.000000000000000 ) ;
#239 = COORDINATED_UNIVERSAL_TIME_OFFSET ( 1, 0, .AHEAD. ) ;
#240 = CARTESIAN_POINT ( 'NONE',  ( 0.000000000000000000, 0.000000000000000000, 3.199999999999980638 ) ) ;
#241 = CIRCLE ( 'NONE', #84, 2.200000000000000178 ) ;
#242 = AXIS2_PLACEMENT_3D ( 'NONE', #25, #76, #168 ) ;
#243 = ADVANCED_FACE ( 'NONE', ( #257, #69 ), #233, .T. ) ;
#244 = APPROVAL_ROLE ( '' ) ;
#245 = ORIENTED_EDGE ( 'NONE', *, *, #174, .T. ) ;
#246 = ORIENTED_EDGE ( 'NONE', *, *, #290, .T. ) ;
#247 = DIRECTION ( 'NONE',  ( -1.000000000000000000, 0.000000000000000000, 0.000000000000000000 ) ) ;
#248 = ORIENTED_EDGE ( 'NONE', *, *, #55, .F. ) ;
#249 = EDGE_LOOP ( 'NONE', ( #5, #158 ) ) ;
#250 = CARTESIAN_POINT ( 'NONE',  ( 0.000000000000000000, 0.000000000000000000, 3.199999999999980638 ) ) ;
#251 = ORIENTED_EDGE ( 'NONE', *, *, #290, .F. ) ;
#252 = APPLICATION_CONTEXT ( 'configuration controlled 3d designs of mechanical parts and assemblies' ) ;
#253 = CARTESIAN_POINT ( 'NONE',  ( 0.000000000000000000, 0.000000000000000000, 3.000000000000000000 ) ) ;
#254 = DIRECTION ( 'NONE',  ( 1.000000000000000000, 0.000000000000000000, -0.000000000000000000 ) ) ;
#255 = CLOSED_SHELL ( 'NONE', ( #159, #33, #269, #80, #243, #133, #152, #67, #9 ) ) ;
#256 = MANIFOLD_SOLID_BREP ( 'Zaoblit1', #255 ) ;
#257 = FACE_BOUND ( 'NONE', #153, .T. ) ;
#258 = DIRECTION ( 'NONE',  ( 0.000000000000000000, 0.000000000000000000, 1.000000000000000000 ) ) ;
#259 = PERSON_AND_ORGANIZATION ( #100, #109 ) ;
#260 = DATE_TIME_ROLE ( 'creation_date' ) ;
#261 = EDGE_CURVE ( 'NONE', #13, #292, #28, .T. ) ;
#262 = APPROVAL_PERSON_ORGANIZATION ( #124, #141, #244 ) ;
#263 = MECHANICAL_CONTEXT ( 'NONE', #252, 'mechanical' ) ;
#264 = CIRCLE ( 'NONE', #197, 0.2000000000000000944 ) ;
#265 = APPROVAL ( #22, 'NEURÈENÝ' ) ;
#266 =( NAMED_UNIT ( * ) PLANE_ANGLE_UNIT ( ) SI_UNIT ( $, .RADIAN. ) );
#267 = ORIENTED_EDGE ( 'NONE', *, *, #123, .F. ) ;
#268 = CARTESIAN_POINT ( 'NONE',  ( 0.000000000000000000, 0.000000000000000000, 3.000000000000000000 ) ) ;
#269 = ADVANCED_FACE ( 'NONE', ( #172 ), #221, .T. ) ;
#270 = CARTESIAN_POINT ( 'NONE',  ( 2.000000000000000000, 2.449293598294706414E-16, 318.0000000000000000 ) ) ;
#271 = LOCAL_TIME ( 14, 50, 52.00000000000000000, #101 ) ;
#272 = DIRECTION ( 'NONE',  ( 1.000000000000000000, 0.000000000000000000, 0.000000000000000000 ) ) ;
#273 = DIRECTION ( 'NONE',  ( -0.000000000000000000, -0.000000000000000000, -1.000000000000000000 ) ) ;
#274 = VERTEX_POINT ( 'NONE', #32 ) ;
#275 = CIRCLE ( 'NONE', #7, 2.000000000000000000 ) ;
#276 = CARTESIAN_POINT ( 'NONE',  ( -4.000000000000000000, 0.000000000000000000, 3.000000000000000000 ) ) ;
#277 = CARTESIAN_POINT ( 'NONE',  ( 0.000000000000000000, 0.000000000000000000, 3.000000000000000000 ) ) ;
#278 = CC_DESIGN_DATE_AND_TIME_ASSIGNMENT ( #282, #260, ( #307 ) ) ;
#279 = DIRECTION ( 'NONE',  ( 1.000000000000000000, 0.000000000000000000, 0.000000000000000000 ) ) ;
#280 = PERSON_AND_ORGANIZATION ( #100, #109 ) ;
#281 = DIRECTION ( 'NONE',  ( 1.000000000000000000, 0.000000000000000000, 0.000000000000000000 ) ) ;
#282 = DATE_AND_TIME ( #115, #54 ) ;
#283 = EDGE_CURVE ( 'NONE', #274, #156, #144, .T. ) ;
#284 = DIRECTION ( 'NONE',  ( -1.000000000000000000, 0.000000000000000000, 0.000000000000000000 ) ) ;
#285 = CARTESIAN_POINT ( 'NONE',  ( 0.000000000000000000, 0.000000000000000000, 3.000000000000000000 ) ) ;
#286 = EDGE_LOOP ( 'NONE', ( #41, #14 ) ) ;
#287 = PERSON_AND_ORGANIZATION ( #100, #109 ) ;
#288 = CIRCLE ( 'NONE', #51, 2.000000000000000000 ) ;
#289 = DIRECTION ( 'NONE',  ( 0.000000000000000000, 0.000000000000000000, 1.000000000000000000 ) ) ;
#290 = EDGE_CURVE ( 'NONE', #160, #156, #81, .T. ) ;
#291 = DIRECTION ( 'NONE',  ( 1.000000000000000000, 0.000000000000000000, 0.000000000000000000 ) ) ;
#292 = VERTEX_POINT ( 'NONE', #38 ) ;
#293 = ORIENTED_EDGE ( 'NONE', *, *, #180, .F. ) ;
#294 = APPROVAL_PERSON_ORGANIZATION ( #259, #265, #75 ) ;
#295 = DIRECTION ( 'NONE',  ( 0.000000000000000000, 0.000000000000000000, 1.000000000000000000 ) ) ;
#296 = FACE_OUTER_BOUND ( 'NONE', #132, .T. ) ;
#297 = CARTESIAN_POINT ( 'NONE',  ( -4.000000000000000000, 0.000000000000000000, 3.000000000000000000 ) ) ;
#298 = CIRCLE ( 'NONE', #120, 4.000000000000000000 ) ;
#299 = CARTESIAN_POINT ( 'NONE',  ( 2.000000000000000000, 2.449293598294706414E-16, 318.0000000000000000 ) ) ;
#300 = EDGE_CURVE ( 'NONE', #156, #274, #275, .T. ) ;
#301 = PERSON_AND_ORGANIZATION ( #100, #109 ) ;
#302 = DIRECTION ( 'NONE',  ( 0.000000000000000000, 0.000000000000000000, 1.000000000000000000 ) ) ;
#303 = VECTOR ( 'NONE', #213, 1000.000000000000000 ) ;
#304 = DESIGN_CONTEXT ( 'detailed design', #117, 'design' ) ;
#305 = DIRECTION ( 'NONE',  ( -0.000000000000000000, -0.000000000000000000, -1.000000000000000000 ) ) ;
#306 = APPROVAL_DATE_TIME ( #145, #141 ) ;
#307 = PRODUCT_DEFINITION ( 'NEZNÁMÝ', '', #170, #304 ) ;
ENDSEC;
END-ISO-10303-21;
