ISO-10303-21;
HEADER;
FILE_DESCRIPTION (( 'STEP AP203' ),
    '1' );
FILE_NAME ('5bb8.STEP',
    '2022-07-07T12:27:06',
    ( '' ),
    ( '' ),
    'SwSTEP 2.0',
    'SolidWorks 2019',
    '' );
FILE_SCHEMA (( 'CONFIG_CONTROL_DESIGN' ));
ENDSEC;

DATA;
#1 = CARTESIAN_POINT ( 'NONE',  ( 0.000000000000000000, 0.000000000000000000, 0.000000000000000000 ) ) ;
#2 = TOROIDAL_SURFACE ( 'NONE', #296, 5.299999999999998934, 0.2000000000000000111 ) ;
#3 = LINE ( 'NONE', #262, #284 ) ;
#4 = CARTESIAN_POINT ( 'NONE',  ( 5.299999999999998934, 0.000000000000000000, 4.999999999999998224 ) ) ;
#5 = DIRECTION ( 'NONE',  ( -0.000000000000000000, -0.000000000000000000, -1.000000000000000000 ) ) ;
#6 = ADVANCED_FACE ( 'NONE', ( #146 ), #285, .T. ) ;
#7 = CC_DESIGN_APPROVAL ( #216, ( #60 ) ) ;
#8 = PLANE ( 'NONE',  #165 ) ;
#9 = CARTESIAN_POINT ( 'NONE',  ( 8.000000000000000000, 9.797174393178825657E-16, 5.000000000000000000 ) ) ;
#10 = CARTESIAN_POINT ( 'NONE',  ( 0.000000000000000000, 0.000000000000000000, 5.199999999999996625 ) ) ;
#11 = EDGE_CURVE ( 'NONE', #183, #187, #205, .T. ) ;
#12 = CIRCLE ( 'NONE', #49, 5.099999999999999645 ) ;
#13 = PERSON_AND_ORGANIZATION_ROLE ( 'classification_officer' ) ;
#14 = PERSON_AND_ORGANIZATION_ROLE ( 'design_owner' ) ;
#15 = EDGE_LOOP ( 'NONE', ( #185, #210 ) ) ;
#16 = AXIS2_PLACEMENT_3D ( 'NONE', #83, #59, #84 ) ;
#17 = APPROVAL_DATE_TIME ( #184, #85 ) ;
#18 = ORIENTED_EDGE ( 'NONE', *, *, #19, .T. ) ;
#19 = EDGE_CURVE ( 'NONE', #172, #183, #55, .T. ) ;
#20 = PERSON_AND_ORGANIZATION_ROLE ( 'creator' ) ;
#21 = TOROIDAL_SURFACE ( 'NONE', #192, 5.299999999999998934, 0.2000000000000000111 ) ;
#22 = APPROVAL_ROLE ( '' ) ;
#23 = VERTEX_POINT ( 'NONE', #96 ) ;
#24 = CC_DESIGN_PERSON_AND_ORGANIZATION_ASSIGNMENT ( #223, #13, ( #78 ) ) ;
#25 = APPROVAL_DATE_TIME ( #98, #126 ) ;
#26 = EDGE_LOOP ( 'NONE', ( #209, #248, #137, #261 ) ) ;
#27 = DIRECTION ( 'NONE',  ( 0.000000000000000000, 0.000000000000000000, 1.000000000000000000 ) ) ;
#28 = APPROVAL_ROLE ( '' ) ;
#29 = DIRECTION ( 'NONE',  ( 1.224646799147353207E-16, 1.000000000000000000, -0.000000000000000000 ) ) ;
#30 = CC_DESIGN_DATE_AND_TIME_ASSIGNMENT ( #134, #302, ( #254 ) ) ;
#31 = VERTEX_POINT ( 'NONE', #170 ) ;
#32 = AXIS2_PLACEMENT_3D ( 'NONE', #130, #215, #198 ) ;
#33 = DIRECTION ( 'NONE',  ( -1.000000000000000000, 0.000000000000000000, 0.000000000000000000 ) ) ;
#34 = FACE_OUTER_BOUND ( 'NONE', #15, .T. ) ;
#35 = AXIS2_PLACEMENT_3D ( 'NONE', #76, #47, #52 ) ;
#36 = CYLINDRICAL_SURFACE ( 'NONE', #149, 8.000000000000000000 ) ;
#37 = DIRECTION ( 'NONE',  ( 1.000000000000000000, 0.000000000000000000, -0.000000000000000000 ) ) ;
#38 = MANIFOLD_SOLID_BREP ( 'Zaoblit1', #113 ) ;
#39 = FACE_OUTER_BOUND ( 'NONE', #26, .T. ) ;
#40 = DIRECTION ( 'NONE',  ( 1.000000000000000000, 0.000000000000000000, 0.000000000000000000 ) ) ;
#41 = AXIS2_PLACEMENT_3D ( 'NONE', #176, #151, #37 ) ;
#42 = DIRECTION ( 'NONE',  ( 1.000000000000000000, 0.000000000000000000, 0.000000000000000000 ) ) ;
#43 = EDGE_CURVE ( 'NONE', #167, #23, #3, .T. ) ;
#44 = PERSON_AND_ORGANIZATION ( #122, #89 ) ;
#45 = ORIENTED_EDGE ( 'NONE', *, *, #117, .T. ) ;
#46 = APPROVAL_DATE_TIME ( #63, #216 ) ;
#47 = DIRECTION ( 'NONE',  ( -0.000000000000000000, -0.000000000000000000, -1.000000000000000000 ) ) ;
#48 = EDGE_LOOP ( 'NONE', ( #283, #226 ) ) ;
#49 = AXIS2_PLACEMENT_3D ( 'NONE', #72, #164, #42 ) ;
#50 = APPLICATION_CONTEXT ( 'configuration controlled 3d designs of mechanical parts and assemblies' ) ;
#51 = PERSON_AND_ORGANIZATION ( #122, #89 ) ;
#52 = DIRECTION ( 'NONE',  ( -1.000000000000000000, 0.000000000000000000, 0.000000000000000000 ) ) ;
#53 = EDGE_CURVE ( 'NONE', #23, #31, #153, .T. ) ;
#54 = DIRECTION ( 'NONE',  ( -1.000000000000000000, 1.224646799147353454E-16, 0.000000000000000000 ) ) ;
#55 = LINE ( 'NONE', #191, #132 ) ;
#56 = APPROVAL_PERSON_ORGANIZATION ( #247, #85, #277 ) ;
#57 = CARTESIAN_POINT ( 'NONE',  ( 0.000000000000000000, 0.000000000000000000, 5.199999999999996625 ) ) ;
#58 = DIRECTION ( 'NONE',  ( -1.000000000000000000, 0.000000000000000000, 0.000000000000000000 ) ) ;
#59 = DIRECTION ( 'NONE',  ( 0.000000000000000000, 0.000000000000000000, 1.000000000000000000 ) ) ;
#60 = PRODUCT_DEFINITION_FORMATION_WITH_SPECIFIED_SOURCE ( 'LIBOVOLNÝ', '', #291, .NOT_KNOWN. ) ;
#61 = CARTESIAN_POINT ( 'NONE',  ( 0.000000000000000000, 0.000000000000000000, 5.000000000000000000 ) ) ;
#62 = FACE_OUTER_BOUND ( 'NONE', #279, .T. ) ;
#63 = DATE_AND_TIME ( #116, #232 ) ;
#64 = EDGE_LOOP ( 'NONE', ( #228, #212 ) ) ;
#65 = AXIS2_PLACEMENT_3D ( 'NONE', #105, #195, #242 ) ;
#66 = CARTESIAN_POINT ( 'NONE',  ( 0.000000000000000000, 0.000000000000000000, 0.000000000000000000 ) ) ;
#67 = EDGE_CURVE ( 'NONE', #236, #187, #168, .T. ) ;
#68 = UNCERTAINTY_MEASURE_WITH_UNIT (LENGTH_MEASURE( 1.000000000000000082E-05 ), #141, 'distance_accuracy_value', 'NONE');
#69 = APPLICATION_CONTEXT ( 'configuration controlled 3d designs of mechanical parts and assemblies' ) ;
#70 = APPROVAL_STATUS ( 'not_yet_approved' ) ;
#71 = ORIENTED_EDGE ( 'NONE', *, *, #298, .F. ) ;
#72 = CARTESIAN_POINT ( 'NONE',  ( 0.000000000000000000, 0.000000000000000000, 130.0000000000000000 ) ) ;
#73 = SHAPE_DEFINITION_REPRESENTATION ( #208, #260 ) ;
#74 = ORIENTED_EDGE ( 'NONE', *, *, #202, .T. ) ;
#75 = CARTESIAN_POINT ( 'NONE',  ( 8.000000000000000000, 9.797174393178825657E-16, 5.000000000000000000 ) ) ;
#76 = CARTESIAN_POINT ( 'NONE',  ( 0.000000000000000000, 0.000000000000000000, 5.000000000000000000 ) ) ;
#77 = AXIS2_PLACEMENT_3D ( 'NONE', #131, #155, #267 ) ;
#78 = SECURITY_CLASSIFICATION ( '', '', #111 ) ;
#79 = DIRECTION ( 'NONE',  ( 1.000000000000000000, 0.000000000000000000, 0.000000000000000000 ) ) ;
#80 = EDGE_LOOP ( 'NONE', ( #190, #99 ) ) ;
#81 = CC_DESIGN_PERSON_AND_ORGANIZATION_ASSIGNMENT ( #186, #280, ( #60 ) ) ;
#82 = DIRECTION ( 'NONE',  ( -1.000000000000000000, 0.000000000000000000, 0.000000000000000000 ) ) ;
#83 = CARTESIAN_POINT ( 'NONE',  ( 0.000000000000000000, 0.000000000000000000, 130.0000000000000000 ) ) ;
#84 = DIRECTION ( 'NONE',  ( 1.000000000000000000, 0.000000000000000000, -0.000000000000000000 ) ) ;
#85 = APPROVAL ( #180, 'NEURÈENÝ' ) ;
#86 = CARTESIAN_POINT ( 'NONE',  ( 0.000000000000000000, 0.000000000000000000, 5.000000000000000000 ) ) ;
#87 = AXIS2_PLACEMENT_3D ( 'NONE', #150, #238, #33 ) ;
#88 = DIRECTION ( 'NONE',  ( 1.000000000000000000, 0.000000000000000000, 0.000000000000000000 ) ) ;
#89 = ORGANIZATION ( 'NEURÈENÝ', 'NEURÈENÝ', '' ) ;
#90 = LOCAL_TIME ( 14, 27, 6.000000000000000000, #110 ) ;
#91 = PERSON_AND_ORGANIZATION ( #122, #89 ) ;
#92 = DIRECTION ( 'NONE',  ( -0.000000000000000000, -0.000000000000000000, -1.000000000000000000 ) ) ;
#93 = PERSON_AND_ORGANIZATION_ROLE ( 'creator' ) ;
#94 = CIRCLE ( 'NONE', #32, 8.000000000000000000 ) ;
#95 = DIRECTION ( 'NONE',  ( 0.000000000000000000, 0.000000000000000000, -1.000000000000000000 ) ) ;
#96 = CARTESIAN_POINT ( 'NONE',  ( -5.099999999999999645, 0.000000000000000000, 5.199999999999996625 ) ) ;
#97 = EDGE_CURVE ( 'NONE', #167, #231, #138, .T. ) ;
#98 = DATE_AND_TIME ( #124, #181 ) ;
#99 = ORIENTED_EDGE ( 'NONE', *, *, #303, .T. ) ;
#100 = ORIENTED_EDGE ( 'NONE', *, *, #43, .T. ) ;
#101 = CARTESIAN_POINT ( 'NONE',  ( 5.099999999999999645, 6.245698675651500839E-16, 5.199999999999996625 ) ) ;
#102 = AXIS2_PLACEMENT_3D ( 'NONE', #233, #27, #169 ) ;
#103 = FACE_OUTER_BOUND ( 'NONE', #80, .T. ) ;
#104 = PLANE ( 'NONE',  #41 ) ;
#105 = CARTESIAN_POINT ( 'NONE',  ( 0.000000000000000000, 0.000000000000000000, 0.000000000000000000 ) ) ;
#106 = CC_DESIGN_PERSON_AND_ORGANIZATION_ASSIGNMENT ( #44, #14, ( #291 ) ) ;
#107 = FACE_BOUND ( 'NONE', #64, .T. ) ;
#108 = DIRECTION ( 'NONE',  ( 1.000000000000000000, 0.000000000000000000, 0.000000000000000000 ) ) ;
#109 = VECTOR ( 'NONE', #92, 1000.000000000000000 ) ;
#110 = COORDINATED_UNIVERSAL_TIME_OFFSET ( 1, 0, .AHEAD. ) ;
#111 = SECURITY_CLASSIFICATION_LEVEL ( 'unclassified' ) ;
#112 = CIRCLE ( 'NONE', #152, 0.1999999999999996503 ) ;
#113 = CLOSED_SHELL ( 'NONE', ( #225, #143, #6, #293, #237, #211, #206, #175, #268 ) ) ;
#114 = CIRCLE ( 'NONE', #301, 5.099999999999999645 ) ;
#115 = COORDINATED_UNIVERSAL_TIME_OFFSET ( 1, 0, .AHEAD. ) ;
#116 = CALENDAR_DATE ( 2022, 7, 7 ) ;
#117 = EDGE_CURVE ( 'NONE', #142, #23, #272, .T. ) ;
#118 = AXIS2_PLACEMENT_3D ( 'NONE', #86, #179, #270 ) ;
#119 = CC_DESIGN_APPROVAL ( #85, ( #254 ) ) ;
#120 = EDGE_LOOP ( 'NONE', ( #307, #256, #45, #147 ) ) ;
#121 = CARTESIAN_POINT ( 'NONE',  ( -5.299999999999998934, 6.490628035480970938E-16, 5.199999999999996625 ) ) ;
#122 = PERSON ( 'NEURÈENÝ', 'NEURÈENÝ', 'NEURÈENÝ', ('NEURÈENÝ'), ('NEURÈENÝ'), ('NEURÈENÝ') ) ;
#123 = EDGE_LOOP ( 'NONE', ( #281, #162, #18, #235 ) ) ;
#124 = CALENDAR_DATE ( 2022, 7, 7 ) ;
#125 = CIRCLE ( 'NONE', #77, 5.299999999999998934 ) ;
#126 = APPROVAL ( #230, 'NEURÈENÝ' ) ;
#127 = DIRECTION ( 'NONE',  ( 0.000000000000000000, 0.000000000000000000, 1.000000000000000000 ) ) ;
#128 = CARTESIAN_POINT ( 'NONE',  ( 5.299999999999998934, 0.000000000000000000, 5.199999999999996625 ) ) ;
#129 = DIRECTION ( 'NONE',  ( 0.000000000000000000, 0.000000000000000000, 1.000000000000000000 ) ) ;
#130 = CARTESIAN_POINT ( 'NONE',  ( 0.000000000000000000, 0.000000000000000000, 5.000000000000000000 ) ) ;
#131 = CARTESIAN_POINT ( 'NONE',  ( 0.000000000000000000, 0.000000000000000000, 5.000000000000000000 ) ) ;
#132 = VECTOR ( 'NONE', #145, 1000.000000000000000 ) ;
#133 = CARTESIAN_POINT ( 'NONE',  ( 0.000000000000000000, 0.000000000000000000, 130.0000000000000000 ) ) ;
#134 = DATE_AND_TIME ( #207, #275 ) ;
#135 = CC_DESIGN_PERSON_AND_ORGANIZATION_ASSIGNMENT ( #91, #20, ( #254 ) ) ;
#136 = CC_DESIGN_SECURITY_CLASSIFICATION ( #78, ( #60 ) ) ;
#137 = ORIENTED_EDGE ( 'NONE', *, *, #196, .F. ) ;
#138 = CIRCLE ( 'NONE', #102, 5.099999999999999645 ) ;
#139 = ORIENTED_EDGE ( 'NONE', *, *, #53, .F. ) ;
#140 = VECTOR ( 'NONE', #258, 1000.000000000000000 ) ;
#141 =( LENGTH_UNIT ( ) NAMED_UNIT ( * ) SI_UNIT ( .MILLI., .METRE. ) );
#142 = VERTEX_POINT ( 'NONE', #101 ) ;
#143 = ADVANCED_FACE ( 'NONE', ( #194 ), #289, .T. ) ;
#144 = AXIS2_PLACEMENT_3D ( 'NONE', #148, #127, #214 ) ;
#145 = DIRECTION ( 'NONE',  ( -0.000000000000000000, -0.000000000000000000, -1.000000000000000000 ) ) ;
#146 = FACE_OUTER_BOUND ( 'NONE', #252, .T. ) ;
#147 = ORIENTED_EDGE ( 'NONE', *, *, #43, .F. ) ;
#148 = CARTESIAN_POINT ( 'NONE',  ( 0.000000000000000000, 0.000000000000000000, 5.199999999999996625 ) ) ;
#149 = AXIS2_PLACEMENT_3D ( 'NONE', #219, #290, #82 ) ;
#150 = CARTESIAN_POINT ( 'NONE',  ( 0.000000000000000000, 0.000000000000000000, 130.0000000000000000 ) ) ;
#151 = DIRECTION ( 'NONE',  ( 0.000000000000000000, 0.000000000000000000, 1.000000000000000000 ) ) ;
#152 = AXIS2_PLACEMENT_3D ( 'NONE', #128, #305, #95 ) ;
#153 = CIRCLE ( 'NONE', #171, 0.1999999999999996503 ) ;
#154 = DIRECTION ( 'NONE',  ( 0.000000000000000000, 0.000000000000000000, 1.000000000000000000 ) ) ;
#155 = DIRECTION ( 'NONE',  ( -0.000000000000000000, -0.000000000000000000, -1.000000000000000000 ) ) ;
#156 = AXIS2_PLACEMENT_3D ( 'NONE', #133, #5, #58 ) ;
#157 = DIRECTION ( 'NONE',  ( 0.000000000000000000, 0.000000000000000000, 1.000000000000000000 ) ) ;
#158 = ORIENTED_EDGE ( 'NONE', *, *, #178, .T. ) ;
#159 = APPLICATION_PROTOCOL_DEFINITION ( 'international standard', 'config_control_design', 1994, #69 ) ;
#160 = ORIENTED_EDGE ( 'NONE', *, *, #271, .F. ) ;
#161 = APPLICATION_PROTOCOL_DEFINITION ( 'international standard', 'config_control_design', 1994, #50 ) ;
#162 = ORIENTED_EDGE ( 'NONE', *, *, #188, .F. ) ;
#163 = EDGE_CURVE ( 'NONE', #142, #274, #112, .T. ) ;
#164 = DIRECTION ( 'NONE',  ( 0.000000000000000000, 0.000000000000000000, 1.000000000000000000 ) ) ;
#165 = AXIS2_PLACEMENT_3D ( 'NONE', #61, #157, #297 ) ;
#166 = DIRECTION ( 'NONE',  ( 0.000000000000000000, 0.000000000000000000, 1.000000000000000000 ) ) ;
#167 = VERTEX_POINT ( 'NONE', #217 ) ;
#168 = LINE ( 'NONE', #75, #140 ) ;
#169 = DIRECTION ( 'NONE',  ( 1.000000000000000000, 0.000000000000000000, 0.000000000000000000 ) ) ;
#170 = CARTESIAN_POINT ( 'NONE',  ( -5.299999999999998934, 6.490628035480970938E-16, 4.999999999999998224 ) ) ;
#171 = AXIS2_PLACEMENT_3D ( 'NONE', #121, #29, #54 ) ;
#172 = VERTEX_POINT ( 'NONE', #294 ) ;
#173 =( GEOMETRIC_REPRESENTATION_CONTEXT ( 3 ) GLOBAL_UNCERTAINTY_ASSIGNED_CONTEXT ( ( #68 ) ) GLOBAL_UNIT_ASSIGNED_CONTEXT ( ( #141, #182, #227 ) ) REPRESENTATION_CONTEXT ( 'NONE', 'WORKASPACE' ) );
#174 = LINE ( 'NONE', #265, #109 ) ;
#175 = ADVANCED_FACE ( 'NONE', ( #103 ), #245, .T. ) ;
#176 = CARTESIAN_POINT ( 'NONE',  ( 0.000000000000000000, 0.000000000000000000, 0.000000000000000000 ) ) ;
#177 = FACE_OUTER_BOUND ( 'NONE', #48, .T. ) ;
#178 = EDGE_CURVE ( 'NONE', #23, #142, #114, .T. ) ;
#179 = DIRECTION ( 'NONE',  ( -0.000000000000000000, -0.000000000000000000, -1.000000000000000000 ) ) ;
#180 = APPROVAL_STATUS ( 'not_yet_approved' ) ;
#181 = LOCAL_TIME ( 14, 27, 6.000000000000000000, #229 ) ;
#182 =( NAMED_UNIT ( * ) PLANE_ANGLE_UNIT ( ) SI_UNIT ( $, .RADIAN. ) );
#183 = VERTEX_POINT ( 'NONE', #200 ) ;
#184 = DATE_AND_TIME ( #255, #201 ) ;
#185 = ORIENTED_EDGE ( 'NONE', *, *, #11, .F. ) ;
#186 = PERSON_AND_ORGANIZATION ( #122, #89 ) ;
#187 = VERTEX_POINT ( 'NONE', #222 ) ;
#188 = EDGE_CURVE ( 'NONE', #172, #236, #213, .T. ) ;
#189 = ORIENTED_EDGE ( 'NONE', *, *, #67, .T. ) ;
#190 = ORIENTED_EDGE ( 'NONE', *, *, #97, .T. ) ;
#191 = CARTESIAN_POINT ( 'NONE',  ( -8.000000000000000000, 0.000000000000000000, 5.000000000000000000 ) ) ;
#192 = AXIS2_PLACEMENT_3D ( 'NONE', #57, #154, #269 ) ;
#193 = DIRECTION ( 'NONE',  ( 0.000000000000000000, 0.000000000000000000, 1.000000000000000000 ) ) ;
#194 = FACE_OUTER_BOUND ( 'NONE', #120, .T. ) ;
#195 = DIRECTION ( 'NONE',  ( 0.000000000000000000, 0.000000000000000000, 1.000000000000000000 ) ) ;
#196 = EDGE_CURVE ( 'NONE', #274, #31, #125, .T. ) ;
#197 = FACE_OUTER_BOUND ( 'NONE', #123, .T. ) ;
#198 = DIRECTION ( 'NONE',  ( 1.000000000000000000, 0.000000000000000000, 0.000000000000000000 ) ) ;
#199 = DIRECTION ( 'NONE',  ( 0.000000000000000000, 0.000000000000000000, 1.000000000000000000 ) ) ;
#200 = CARTESIAN_POINT ( 'NONE',  ( -8.000000000000000000, 0.000000000000000000, 0.000000000000000000 ) ) ;
#201 = LOCAL_TIME ( 14, 27, 6.000000000000000000, #300 ) ;
#202 = EDGE_CURVE ( 'NONE', #187, #183, #241, .T. ) ;
#203 = CALENDAR_DATE ( 2022, 7, 7 ) ;
#204 = DESIGN_CONTEXT ( 'detailed design', #69, 'design' ) ;
#205 = CIRCLE ( 'NONE', #263, 8.000000000000000000 ) ;
#206 = ADVANCED_FACE ( 'NONE', ( #292 ), #295, .T. ) ;
#207 = CALENDAR_DATE ( 2022, 7, 7 ) ;
#208 = PRODUCT_DEFINITION_SHAPE ( 'NONE', 'NONE',  #254 ) ;
#209 = ORIENTED_EDGE ( 'NONE', *, *, #178, .F. ) ;
#210 = ORIENTED_EDGE ( 'NONE', *, *, #202, .F. ) ;
#211 = ADVANCED_FACE ( 'NONE', ( #34 ), #104, .F. ) ;
#212 = ORIENTED_EDGE ( 'NONE', *, *, #259, .T. ) ;
#213 = CIRCLE ( 'NONE', #253, 8.000000000000000000 ) ;
#214 = DIRECTION ( 'NONE',  ( 1.000000000000000000, 0.000000000000000000, 0.000000000000000000 ) ) ;
#215 = DIRECTION ( 'NONE',  ( 0.000000000000000000, 0.000000000000000000, 1.000000000000000000 ) ) ;
#216 = APPROVAL ( #70, 'NEURÈENÝ' ) ;
#217 = CARTESIAN_POINT ( 'NONE',  ( -5.099999999999999645, 0.000000000000000000, 130.0000000000000000 ) ) ;
#218 = AXIS2_PLACEMENT_3D ( 'NONE', #66, #166, #88 ) ;
#219 = CARTESIAN_POINT ( 'NONE',  ( 0.000000000000000000, 0.000000000000000000, 5.000000000000000000 ) ) ;
#220 = APPROVAL_PERSON_ORGANIZATION ( #51, #126, #28 ) ;
#221 = CARTESIAN_POINT ( 'NONE',  ( 5.099999999999999645, 6.245698675651500839E-16, 130.0000000000000000 ) ) ;
#222 = CARTESIAN_POINT ( 'NONE',  ( 8.000000000000000000, 9.797174393178825657E-16, 0.000000000000000000 ) ) ;
#223 = PERSON_AND_ORGANIZATION ( #122, #89 ) ;
#224 = APPROVAL_PERSON_ORGANIZATION ( #278, #216, #22 ) ;
#225 = ADVANCED_FACE ( 'NONE', ( #39 ), #21, .F. ) ;
#226 = ORIENTED_EDGE ( 'NONE', *, *, #271, .T. ) ;
#227 =( NAMED_UNIT ( * ) SI_UNIT ( $, .STERADIAN. ) SOLID_ANGLE_UNIT ( ) );
#228 = ORIENTED_EDGE ( 'NONE', *, *, #196, .T. ) ;
#229 = COORDINATED_UNIVERSAL_TIME_OFFSET ( 1, 0, .AHEAD. ) ;
#230 = APPROVAL_STATUS ( 'not_yet_approved' ) ;
#231 = VERTEX_POINT ( 'NONE', #221 ) ;
#232 = LOCAL_TIME ( 14, 27, 6.000000000000000000, #251 ) ;
#233 = CARTESIAN_POINT ( 'NONE',  ( 0.000000000000000000, 0.000000000000000000, 130.0000000000000000 ) ) ;
#234 = CC_DESIGN_PERSON_AND_ORGANIZATION_ASSIGNMENT ( #304, #93, ( #60 ) ) ;
#235 = ORIENTED_EDGE ( 'NONE', *, *, #11, .T. ) ;
#236 = VERTEX_POINT ( 'NONE', #9 ) ;
#237 = ADVANCED_FACE ( 'NONE', ( #107, #177 ), #8, .T. ) ;
#238 = DIRECTION ( 'NONE',  ( -0.000000000000000000, -0.000000000000000000, -1.000000000000000000 ) ) ;
#239 = CARTESIAN_POINT ( 'NONE',  ( 0.000000000000000000, 0.000000000000000000, 5.199999999999996625 ) ) ;
#240 = DIRECTION ( 'NONE',  ( 0.000000000000000000, 0.000000000000000000, 1.000000000000000000 ) ) ;
#241 = CIRCLE ( 'NONE', #65, 8.000000000000000000 ) ;
#242 = DIRECTION ( 'NONE',  ( 1.000000000000000000, 0.000000000000000000, 0.000000000000000000 ) ) ;
#243 = PRODUCT_RELATED_PRODUCT_CATEGORY ( 'detail', '', ( #291 ) ) ;
#244 = CARTESIAN_POINT ( 'NONE',  ( 0.000000000000000000, 0.000000000000000000, 5.000000000000000000 ) ) ;
#245 = PLANE ( 'NONE',  #16 ) ;
#246 = CIRCLE ( 'NONE', #118, 5.299999999999998934 ) ;
#247 = PERSON_AND_ORGANIZATION ( #122, #89 ) ;
#248 = ORIENTED_EDGE ( 'NONE', *, *, #53, .T. ) ;
#249 = MECHANICAL_CONTEXT ( 'NONE', #50, 'mechanical' ) ;
#250 = ORIENTED_EDGE ( 'NONE', *, *, #97, .F. ) ;
#251 = COORDINATED_UNIVERSAL_TIME_OFFSET ( 1, 0, .AHEAD. ) ;
#252 = EDGE_LOOP ( 'NONE', ( #160, #189, #74, #257 ) ) ;
#253 = AXIS2_PLACEMENT_3D ( 'NONE', #244, #129, #266 ) ;
#254 = PRODUCT_DEFINITION ( 'NEZNÁMÝ', '', #60, #204 ) ;
#255 = CALENDAR_DATE ( 2022, 7, 7 ) ;
#256 = ORIENTED_EDGE ( 'NONE', *, *, #298, .T. ) ;
#257 = ORIENTED_EDGE ( 'NONE', *, *, #19, .F. ) ;
#258 = DIRECTION ( 'NONE',  ( -0.000000000000000000, -0.000000000000000000, -1.000000000000000000 ) ) ;
#259 = EDGE_CURVE ( 'NONE', #31, #274, #246, .T. ) ;
#260 = ADVANCED_BREP_SHAPE_REPRESENTATION ( '5bb8', ( #38, #218 ), #173 ) ;
#261 = ORIENTED_EDGE ( 'NONE', *, *, #163, .F. ) ;
#262 = CARTESIAN_POINT ( 'NONE',  ( -5.099999999999999645, 0.000000000000000000, 130.0000000000000000 ) ) ;
#263 = AXIS2_PLACEMENT_3D ( 'NONE', #1, #193, #79 ) ;
#264 = EDGE_LOOP ( 'NONE', ( #71, #250, #100, #158 ) ) ;
#265 = CARTESIAN_POINT ( 'NONE',  ( 5.099999999999999645, 6.245698675651500839E-16, 130.0000000000000000 ) ) ;
#266 = DIRECTION ( 'NONE',  ( 1.000000000000000000, 0.000000000000000000, 0.000000000000000000 ) ) ;
#267 = DIRECTION ( 'NONE',  ( 1.000000000000000000, 0.000000000000000000, 0.000000000000000000 ) ) ;
#268 = ADVANCED_FACE ( 'NONE', ( #62 ), #2, .F. ) ;
#269 = DIRECTION ( 'NONE',  ( 1.000000000000000000, 0.000000000000000000, 0.000000000000000000 ) ) ;
#270 = DIRECTION ( 'NONE',  ( 1.000000000000000000, 0.000000000000000000, 0.000000000000000000 ) ) ;
#271 = EDGE_CURVE ( 'NONE', #236, #172, #94, .T. ) ;
#272 = CIRCLE ( 'NONE', #144, 5.099999999999999645 ) ;
#273 = DATE_TIME_ROLE ( 'classification_date' ) ;
#274 = VERTEX_POINT ( 'NONE', #4 ) ;
#275 = LOCAL_TIME ( 14, 27, 6.000000000000000000, #115 ) ;
#276 = ORIENTED_EDGE ( 'NONE', *, *, #259, .F. ) ;
#277 = APPROVAL_ROLE ( '' ) ;
#278 = PERSON_AND_ORGANIZATION ( #122, #89 ) ;
#279 = EDGE_LOOP ( 'NONE', ( #139, #287, #286, #276 ) ) ;
#280 = PERSON_AND_ORGANIZATION_ROLE ( 'design_supplier' ) ;
#281 = ORIENTED_EDGE ( 'NONE', *, *, #67, .F. ) ;
#282 = CC_DESIGN_APPROVAL ( #126, ( #78 ) ) ;
#283 = ORIENTED_EDGE ( 'NONE', *, *, #188, .T. ) ;
#284 = VECTOR ( 'NONE', #306, 1000.000000000000000 ) ;
#285 = CYLINDRICAL_SURFACE ( 'NONE', #35, 8.000000000000000000 ) ;
#286 = ORIENTED_EDGE ( 'NONE', *, *, #163, .T. ) ;
#287 = ORIENTED_EDGE ( 'NONE', *, *, #117, .F. ) ;
#288 = CC_DESIGN_DATE_AND_TIME_ASSIGNMENT ( #299, #273, ( #78 ) ) ;
#289 = CYLINDRICAL_SURFACE ( 'NONE', #87, 5.099999999999999645 ) ;
#290 = DIRECTION ( 'NONE',  ( -0.000000000000000000, -0.000000000000000000, -1.000000000000000000 ) ) ;
#291 = PRODUCT ( '5bb8', '5bb8', '', ( #249 ) ) ;
#292 = FACE_OUTER_BOUND ( 'NONE', #264, .T. ) ;
#293 = ADVANCED_FACE ( 'NONE', ( #197 ), #36, .T. ) ;
#294 = CARTESIAN_POINT ( 'NONE',  ( -8.000000000000000000, 0.000000000000000000, 5.000000000000000000 ) ) ;
#295 = CYLINDRICAL_SURFACE ( 'NONE', #156, 5.099999999999999645 ) ;
#296 = AXIS2_PLACEMENT_3D ( 'NONE', #239, #240, #40 ) ;
#297 = DIRECTION ( 'NONE',  ( 1.000000000000000000, 0.000000000000000000, -0.000000000000000000 ) ) ;
#298 = EDGE_CURVE ( 'NONE', #231, #142, #174, .T. ) ;
#299 = DATE_AND_TIME ( #203, #90 ) ;
#300 = COORDINATED_UNIVERSAL_TIME_OFFSET ( 1, 0, .AHEAD. ) ;
#301 = AXIS2_PLACEMENT_3D ( 'NONE', #10, #199, #108 ) ;
#302 = DATE_TIME_ROLE ( 'creation_date' ) ;
#303 = EDGE_CURVE ( 'NONE', #231, #167, #12, .T. ) ;
#304 = PERSON_AND_ORGANIZATION ( #122, #89 ) ;
#305 = DIRECTION ( 'NONE',  ( 0.000000000000000000, -1.000000000000000000, 0.000000000000000000 ) ) ;
#306 = DIRECTION ( 'NONE',  ( -0.000000000000000000, -0.000000000000000000, -1.000000000000000000 ) ) ;
#307 = ORIENTED_EDGE ( 'NONE', *, *, #303, .F. ) ;
ENDSEC;
END-ISO-10303-21;
