ISO-10303-21;
HEADER;
FILE_DESCRIPTION (( 'STEP AP203' ),
    '1' );
FILE_NAME ('d245.STEP',
    '2022-07-07T12:42:21',
    ( '' ),
    ( '' ),
    'SwSTEP 2.0',
    'SolidWorks 2019',
    '' );
FILE_SCHEMA (( 'CONFIG_CONTROL_DESIGN' ));
ENDSEC;

DATA;
#1 = APPROVAL ( #274, 'NEURÈENÝ' ) ;
#2 = CIRCLE ( 'NONE', #287, 0.1999999999999996503 ) ;
#3 = COORDINATED_UNIVERSAL_TIME_OFFSET ( 1, 0, .AHEAD. ) ;
#4 = CARTESIAN_POINT ( 'NONE',  ( 0.000000000000000000, 0.000000000000000000, 5.200000000000009948 ) ) ;
#5 = PERSON_AND_ORGANIZATION ( #149, #67 ) ;
#6 = VERTEX_POINT ( 'NONE', #223 ) ;
#7 = ORIENTED_EDGE ( 'NONE', *, *, #138, .T. ) ;
#8 = APPROVAL_STATUS ( 'not_yet_approved' ) ;
#9 = CARTESIAN_POINT ( 'NONE',  ( 0.000000000000000000, 0.000000000000000000, 5.000000000000000000 ) ) ;
#10 = ORIENTED_EDGE ( 'NONE', *, *, #304, .T. ) ;
#11 = LINE ( 'NONE', #301, #92 ) ;
#12 = EDGE_CURVE ( 'NONE', #205, #128, #305, .T. ) ;
#13 = DIRECTION ( 'NONE',  ( 1.000000000000000000, 0.000000000000000000, -0.000000000000000000 ) ) ;
#14 = DIRECTION ( 'NONE',  ( 1.000000000000000000, 0.000000000000000000, 0.000000000000000000 ) ) ;
#15 = CARTESIAN_POINT ( 'NONE',  ( 6.000000000000000888, 7.347880794884120722E-16, 0.000000000000000000 ) ) ;
#16 = DIRECTION ( 'NONE',  ( 1.000000000000000000, 0.000000000000000000, 0.000000000000000000 ) ) ;
#17 = CARTESIAN_POINT ( 'NONE',  ( 0.000000000000000000, 0.000000000000000000, 5.000000000000000000 ) ) ;
#18 = CARTESIAN_POINT ( 'NONE',  ( 3.200000000000000622, 0.000000000000000000, 5.200000000000009948 ) ) ;
#19 = DESIGN_CONTEXT ( 'detailed design', #81, 'design' ) ;
#20 = AXIS2_PLACEMENT_3D ( 'NONE', #204, #87, #185 ) ;
#21 = CLOSED_SHELL ( 'NONE', ( #60, #194, #33, #120, #122, #166, #169, #155, #217 ) ) ;
#22 = PRODUCT_DEFINITION ( 'NEZNÁMÝ', '', #90, #19 ) ;
#23 = DATE_TIME_ROLE ( 'classification_date' ) ;
#24 = ORIENTED_EDGE ( 'NONE', *, *, #66, .T. ) ;
#25 = EDGE_CURVE ( 'NONE', #6, #275, #271, .T. ) ;
#26 = ORIENTED_EDGE ( 'NONE', *, *, #193, .T. ) ;
#27 = DATE_AND_TIME ( #133, #86 ) ;
#28 = ORIENTED_EDGE ( 'NONE', *, *, #96, .T. ) ;
#29 = DIRECTION ( 'NONE',  ( 1.000000000000000000, 0.000000000000000000, 0.000000000000000000 ) ) ;
#30 = AXIS2_PLACEMENT_3D ( 'NONE', #42, #262, #302 ) ;
#31 = ORIENTED_EDGE ( 'NONE', *, *, #250, .T. ) ;
#32 = PLANE ( 'NONE',  #40 ) ;
#33 = ADVANCED_FACE ( 'NONE', ( #212 ), #297, .T. ) ;
#34 = FACE_OUTER_BOUND ( 'NONE', #225, .T. ) ;
#35 = PRODUCT ( 'd245', 'd245', '', ( #152 ) ) ;
#36 = CARTESIAN_POINT ( 'NONE',  ( 0.000000000000000000, 0.000000000000000000, 165.0000000000000000 ) ) ;
#37 = CC_DESIGN_APPROVAL ( #1, ( #90 ) ) ;
#38 = CYLINDRICAL_SURFACE ( 'NONE', #30, 3.000000000000000444 ) ;
#39 = CARTESIAN_POINT ( 'NONE',  ( -3.200000000000000622, 3.918869757271530953E-16, 5.000000000000005329 ) ) ;
#40 = AXIS2_PLACEMENT_3D ( 'NONE', #295, #112, #13 ) ;
#41 = DIRECTION ( 'NONE',  ( -0.000000000000000000, -0.000000000000000000, -1.000000000000000000 ) ) ;
#42 = CARTESIAN_POINT ( 'NONE',  ( 0.000000000000000000, 0.000000000000000000, 165.0000000000000000 ) ) ;
#43 = CARTESIAN_POINT ( 'NONE',  ( 0.000000000000000000, 0.000000000000000000, 5.000000000000000000 ) ) ;
#44 = AXIS2_PLACEMENT_3D ( 'NONE', #276, #278, #88 ) ;
#45 = APPROVAL_DATE_TIME ( #47, #284 ) ;
#46 = CC_DESIGN_PERSON_AND_ORGANIZATION_ASSIGNMENT ( #244, #292, ( #90 ) ) ;
#47 = DATE_AND_TIME ( #196, #188 ) ;
#48 = VERTEX_POINT ( 'NONE', #162 ) ;
#49 = APPROVAL_PERSON_ORGANIZATION ( #227, #232, #75 ) ;
#50 = ORIENTED_EDGE ( 'NONE', *, *, #269, .F. ) ;
#51 = COORDINATED_UNIVERSAL_TIME_OFFSET ( 1, 0, .AHEAD. ) ;
#52 = ORIENTED_EDGE ( 'NONE', *, *, #12, .T. ) ;
#53 = EDGE_LOOP ( 'NONE', ( #24, #28 ) ) ;
#54 = FACE_BOUND ( 'NONE', #104, .T. ) ;
#55 = CC_DESIGN_DATE_AND_TIME_ASSIGNMENT ( #73, #222, ( #22 ) ) ;
#56 = LOCAL_TIME ( 14, 42, 21.00000000000000000, #267 ) ;
#57 = PLANE ( 'NONE',  #179 ) ;
#58 = CARTESIAN_POINT ( 'NONE',  ( 6.000000000000000888, 7.347880794884120722E-16, 5.000000000000000000 ) ) ;
#59 = DIRECTION ( 'NONE',  ( 1.000000000000000000, 0.000000000000000000, 0.000000000000000000 ) ) ;
#60 = ADVANCED_FACE ( 'NONE', ( #114 ), #242, .F. ) ;
#61 = CARTESIAN_POINT ( 'NONE',  ( 3.000000000000000444, 3.673940397442060361E-16, 5.200000000000009948 ) ) ;
#62 = CIRCLE ( 'NONE', #126, 6.000000000000000888 ) ;
#63 = DIRECTION ( 'NONE',  ( 0.000000000000000000, 0.000000000000000000, 1.000000000000000000 ) ) ;
#64 = DIRECTION ( 'NONE',  ( -0.000000000000000000, -0.000000000000000000, -1.000000000000000000 ) ) ;
#65 = DIRECTION ( 'NONE',  ( 1.000000000000000000, 0.000000000000000000, 0.000000000000000000 ) ) ;
#66 = EDGE_CURVE ( 'NONE', #74, #156, #283, .T. ) ;
#67 = ORGANIZATION ( 'NEURÈENÝ', 'NEURÈENÝ', '' ) ;
#68 = SECURITY_CLASSIFICATION ( '', '', #288 ) ;
#69 = APPROVAL_PERSON_ORGANIZATION ( #290, #1, #100 ) ;
#70 = CALENDAR_DATE ( 2022, 7, 7 ) ;
#71 = PERSON_AND_ORGANIZATION ( #149, #67 ) ;
#72 = EDGE_LOOP ( 'NONE', ( #273, #135, #239, #268 ) ) ;
#73 = DATE_AND_TIME ( #70, #94 ) ;
#74 = VERTEX_POINT ( 'NONE', #256 ) ;
#75 = APPROVAL_ROLE ( '' ) ;
#76 = CIRCLE ( 'NONE', #202, 3.200000000000000622 ) ;
#77 = EDGE_LOOP ( 'NONE', ( #245, #26, #7, #293 ) ) ;
#78 = APPROVAL_STATUS ( 'not_yet_approved' ) ;
#79 = VECTOR ( 'NONE', #180, 1000.000000000000000 ) ;
#80 = ORIENTED_EDGE ( 'NONE', *, *, #199, .F. ) ;
#81 = APPLICATION_CONTEXT ( 'configuration controlled 3d designs of mechanical parts and assemblies' ) ;
#82 = DIRECTION ( 'NONE',  ( -0.000000000000000000, -0.000000000000000000, -1.000000000000000000 ) ) ;
#83 = ORIENTED_EDGE ( 'NONE', *, *, #250, .F. ) ;
#84 = CIRCLE ( 'NONE', #263, 0.2000000000000000944 ) ;
#85 = DIRECTION ( 'NONE',  ( 0.000000000000000000, 0.000000000000000000, 1.000000000000000000 ) ) ;
#86 = LOCAL_TIME ( 14, 42, 21.00000000000000000, #3 ) ;
#87 = DIRECTION ( 'NONE',  ( -0.000000000000000000, -0.000000000000000000, -1.000000000000000000 ) ) ;
#88 = DIRECTION ( 'NONE',  ( 1.000000000000000000, 0.000000000000000000, -0.000000000000000000 ) ) ;
#89 = CARTESIAN_POINT ( 'NONE',  ( -3.000000000000000444, 0.000000000000000000, 165.0000000000000000 ) ) ;
#90 = PRODUCT_DEFINITION_FORMATION_WITH_SPECIFIED_SOURCE ( 'LIBOVOLNÝ', '', #35, .NOT_KNOWN. ) ;
#91 = CARTESIAN_POINT ( 'NONE',  ( 0.000000000000000000, 0.000000000000000000, 5.000000000000000000 ) ) ;
#92 = VECTOR ( 'NONE', #117, 1000.000000000000000 ) ;
#93 = DIRECTION ( 'NONE',  ( 0.000000000000000000, 0.000000000000000000, 1.000000000000000000 ) ) ;
#94 = LOCAL_TIME ( 14, 42, 21.00000000000000000, #224 ) ;
#95 = UNCERTAINTY_MEASURE_WITH_UNIT (LENGTH_MEASURE( 1.000000000000000082E-05 ), #119, 'distance_accuracy_value', 'NONE');
#96 = EDGE_CURVE ( 'NONE', #156, #74, #147, .T. ) ;
#97 = CIRCLE ( 'NONE', #272, 3.000000000000000444 ) ;
#98 = APPROVAL_ROLE ( '' ) ;
#99 = ORIENTED_EDGE ( 'NONE', *, *, #101, .T. ) ;
#100 = APPROVAL_ROLE ( '' ) ;
#101 = EDGE_CURVE ( 'NONE', #291, #130, #11, .T. ) ;
#102 = DIRECTION ( 'NONE',  ( 0.000000000000000000, 0.000000000000000000, 1.000000000000000000 ) ) ;
#103 = DATE_AND_TIME ( #154, #270 ) ;
#104 = EDGE_LOOP ( 'NONE', ( #289, #294 ) ) ;
#105 = CIRCLE ( 'NONE', #298, 6.000000000000000888 ) ;
#106 = EDGE_LOOP ( 'NONE', ( #229, #197, #80, #150 ) ) ;
#107 = CALENDAR_DATE ( 2022, 7, 7 ) ;
#108 = AXIS2_PLACEMENT_3D ( 'NONE', #184, #280, #16 ) ;
#109 = DIRECTION ( 'NONE',  ( -1.000000000000000000, 0.000000000000000000, 0.000000000000000000 ) ) ;
#110 = AXIS2_PLACEMENT_3D ( 'NONE', #160, #85, #237 ) ;
#111 = ORIENTED_EDGE ( 'NONE', *, *, #269, .T. ) ;
#112 = DIRECTION ( 'NONE',  ( 0.000000000000000000, 0.000000000000000000, 1.000000000000000000 ) ) ;
#113 = CYLINDRICAL_SURFACE ( 'NONE', #195, 3.000000000000000444 ) ;
#114 = FACE_OUTER_BOUND ( 'NONE', #106, .T. ) ;
#115 = PRODUCT_RELATED_PRODUCT_CATEGORY ( 'detail', '', ( #35 ) ) ;
#116 = DIRECTION ( 'NONE',  ( 0.000000000000000000, -1.000000000000000000, 0.000000000000000000 ) ) ;
#117 = DIRECTION ( 'NONE',  ( -0.000000000000000000, -0.000000000000000000, -1.000000000000000000 ) ) ;
#118 = DIRECTION ( 'NONE',  ( 1.000000000000000000, 0.000000000000000000, 0.000000000000000000 ) ) ;
#119 =( LENGTH_UNIT ( ) NAMED_UNIT ( * ) SI_UNIT ( .MILLI., .METRE. ) );
#120 = ADVANCED_FACE ( 'NONE', ( #253 ), #254, .T. ) ;
#121 = DIRECTION ( 'NONE',  ( 0.000000000000000000, 0.000000000000000000, 1.000000000000000000 ) ) ;
#122 = ADVANCED_FACE ( 'NONE', ( #54, #139 ), #235, .T. ) ;
#123 = VECTOR ( 'NONE', #144, 1000.000000000000000 ) ;
#124 = CC_DESIGN_APPROVAL ( #232, ( #68 ) ) ;
#125 = MANIFOLD_SOLID_BREP ( 'Zaoblit1', #21 ) ;
#126 = AXIS2_PLACEMENT_3D ( 'NONE', #167, #63, #163 ) ;
#127 = APPLICATION_PROTOCOL_DEFINITION ( 'international standard', 'config_control_design', 1994, #306 ) ;
#128 = VERTEX_POINT ( 'NONE', #61 ) ;
#129 = PERSON_AND_ORGANIZATION ( #149, #67 ) ;
#130 = VERTEX_POINT ( 'NONE', #183 ) ;
#131 = APPROVAL_DATE_TIME ( #243, #232 ) ;
#132 = ORIENTED_EDGE ( 'NONE', *, *, #25, .T. ) ;
#133 = CALENDAR_DATE ( 2022, 7, 7 ) ;
#134 = CARTESIAN_POINT ( 'NONE',  ( 0.000000000000000000, 0.000000000000000000, 0.000000000000000000 ) ) ;
#135 = ORIENTED_EDGE ( 'NONE', *, *, #138, .F. ) ;
#136 = DIRECTION ( 'NONE',  ( 0.000000000000000000, 0.000000000000000000, 1.000000000000000000 ) ) ;
#137 = DIRECTION ( 'NONE',  ( 1.000000000000000000, 0.000000000000000000, -0.000000000000000000 ) ) ;
#138 = EDGE_CURVE ( 'NONE', #128, #205, #97, .T. ) ;
#139 = FACE_OUTER_BOUND ( 'NONE', #248, .T. ) ;
#140 = DIRECTION ( 'NONE',  ( 1.000000000000000000, 0.000000000000000000, 0.000000000000000000 ) ) ;
#141 = DIRECTION ( 'NONE',  ( 0.000000000000000000, 0.000000000000000000, 1.000000000000000000 ) ) ;
#142 = CC_DESIGN_PERSON_AND_ORGANIZATION_ASSIGNMENT ( #71, #176, ( #35 ) ) ;
#143 = CARTESIAN_POINT ( 'NONE',  ( 0.000000000000000000, 0.000000000000000000, 0.000000000000000000 ) ) ;
#144 = DIRECTION ( 'NONE',  ( -0.000000000000000000, -0.000000000000000000, -1.000000000000000000 ) ) ;
#145 = AXIS2_PLACEMENT_3D ( 'NONE', #266, #146, #29 ) ;
#146 = DIRECTION ( 'NONE',  ( 0.000000000000000000, 0.000000000000000000, 1.000000000000000000 ) ) ;
#147 = CIRCLE ( 'NONE', #282, 3.000000000000000444 ) ;
#148 = PERSON_AND_ORGANIZATION_ROLE ( 'creator' ) ;
#149 = PERSON ( 'NEURÈENÝ', 'NEURÈENÝ', 'NEURÈENÝ', ('NEURÈENÝ'), ('NEURÈENÝ'), ('NEURÈENÝ') ) ;
#150 = ORIENTED_EDGE ( 'NONE', *, *, #213, .F. ) ;
#151 = AXIS2_PLACEMENT_3D ( 'NONE', #189, #141, #281 ) ;
#152 = MECHANICAL_CONTEXT ( 'NONE', #306, 'mechanical' ) ;
#153 = ORIENTED_EDGE ( 'NONE', *, *, #101, .F. ) ;
#154 = CALENDAR_DATE ( 2022, 7, 7 ) ;
#155 = ADVANCED_FACE ( 'NONE', ( #277 ), #32, .T. ) ;
#156 = VERTEX_POINT ( 'NONE', #207 ) ;
#157 = PERSON_AND_ORGANIZATION_ROLE ( 'creator' ) ;
#158 = ORIENTED_EDGE ( 'NONE', *, *, #206, .T. ) ;
#159 = CARTESIAN_POINT ( 'NONE',  ( 0.000000000000000000, 0.000000000000000000, 5.200000000000009948 ) ) ;
#160 = CARTESIAN_POINT ( 'NONE',  ( 0.000000000000000000, 0.000000000000000000, 5.200000000000009948 ) ) ;
#161 = CC_DESIGN_PERSON_AND_ORGANIZATION_ASSIGNMENT ( #5, #157, ( #90 ) ) ;
#162 = CARTESIAN_POINT ( 'NONE',  ( 3.200000000000000622, 0.000000000000000000, 5.000000000000005329 ) ) ;
#163 = DIRECTION ( 'NONE',  ( 1.000000000000000000, 0.000000000000000000, 0.000000000000000000 ) ) ;
#164 = DIRECTION ( 'NONE',  ( -0.000000000000000000, -0.000000000000000000, -1.000000000000000000 ) ) ;
#165 =( NAMED_UNIT ( * ) PLANE_ANGLE_UNIT ( ) SI_UNIT ( $, .RADIAN. ) );
#166 = ADVANCED_FACE ( 'NONE', ( #34 ), #57, .F. ) ;
#167 = CARTESIAN_POINT ( 'NONE',  ( 0.000000000000000000, 0.000000000000000000, 5.000000000000000000 ) ) ;
#168 = CC_DESIGN_DATE_AND_TIME_ASSIGNMENT ( #27, #23, ( #68 ) ) ;
#169 = ADVANCED_FACE ( 'NONE', ( #233 ), #113, .T. ) ;
#170 = APPLICATION_PROTOCOL_DEFINITION ( 'international standard', 'config_control_design', 1994, #81 ) ;
#171 = AXIS2_PLACEMENT_3D ( 'NONE', #4, #102, #200 ) ;
#172 = COORDINATED_UNIVERSAL_TIME_OFFSET ( 1, 0, .AHEAD. ) ;
#173 = ORIENTED_EDGE ( 'NONE', *, *, #304, .F. ) ;
#174 = ORIENTED_EDGE ( 'NONE', *, *, #219, .F. ) ;
#175 = CIRCLE ( 'NONE', #251, 3.200000000000000622 ) ;
#176 = PERSON_AND_ORGANIZATION_ROLE ( 'design_owner' ) ;
#177 = ORIENTED_EDGE ( 'NONE', *, *, #219, .T. ) ;
#178 = VERTEX_POINT ( 'NONE', #39 ) ;
#179 = AXIS2_PLACEMENT_3D ( 'NONE', #134, #136, #137 ) ;
#180 = DIRECTION ( 'NONE',  ( -0.000000000000000000, -0.000000000000000000, -1.000000000000000000 ) ) ;
#181 = PRODUCT_DEFINITION_SHAPE ( 'NONE', 'NONE',  #22 ) ;
#182 = AXIS2_PLACEMENT_3D ( 'NONE', #17, #121, #140 ) ;
#183 = CARTESIAN_POINT ( 'NONE',  ( -6.000000000000000888, 0.000000000000000000, 0.000000000000000000 ) ) ;
#184 = CARTESIAN_POINT ( 'NONE',  ( 0.000000000000000000, 0.000000000000000000, 165.0000000000000000 ) ) ;
#185 = DIRECTION ( 'NONE',  ( -1.000000000000000000, 0.000000000000000000, 0.000000000000000000 ) ) ;
#186 = DIRECTION ( 'NONE',  ( 1.000000000000000000, 0.000000000000000000, 0.000000000000000000 ) ) ;
#187 = EDGE_CURVE ( 'NONE', #178, #48, #76, .T. ) ;
#188 = LOCAL_TIME ( 14, 42, 21.00000000000000000, #51 ) ;
#189 = CARTESIAN_POINT ( 'NONE',  ( 0.000000000000000000, 0.000000000000000000, 5.200000000000009948 ) ) ;
#190 =( NAMED_UNIT ( * ) SI_UNIT ( $, .STERADIAN. ) SOLID_ANGLE_UNIT ( ) );
#191 = DIRECTION ( 'NONE',  ( 0.000000000000000000, 0.000000000000000000, -1.000000000000000000 ) ) ;
#192 = AXIS2_PLACEMENT_3D ( 'NONE', #261, #93, #65 ) ;
#193 = EDGE_CURVE ( 'NONE', #156, #128, #214, .T. ) ;
#194 = ADVANCED_FACE ( 'NONE', ( #303 ), #38, .T. ) ;
#195 = AXIS2_PLACEMENT_3D ( 'NONE', #299, #164, #259 ) ;
#196 = CALENDAR_DATE ( 2022, 7, 7 ) ;
#197 = ORIENTED_EDGE ( 'NONE', *, *, #255, .T. ) ;
#198 = SHAPE_DEFINITION_REPRESENTATION ( #181, #209 ) ;
#199 = EDGE_CURVE ( 'NONE', #48, #178, #175, .T. ) ;
#200 = DIRECTION ( 'NONE',  ( 1.000000000000000000, 0.000000000000000000, 0.000000000000000000 ) ) ;
#201 = EDGE_LOOP ( 'NONE', ( #246, #83, #99, #10 ) ) ;
#202 = AXIS2_PLACEMENT_3D ( 'NONE', #91, #41, #118 ) ;
#203 = ORIENTED_EDGE ( 'NONE', *, *, #193, .F. ) ;
#204 = CARTESIAN_POINT ( 'NONE',  ( 0.000000000000000000, 0.000000000000000000, 5.000000000000000000 ) ) ;
#205 = VERTEX_POINT ( 'NONE', #257 ) ;
#206 = EDGE_CURVE ( 'NONE', #74, #205, #260, .T. ) ;
#207 = CARTESIAN_POINT ( 'NONE',  ( 3.000000000000000444, 3.673940397442060361E-16, 165.0000000000000000 ) ) ;
#208 =( GEOMETRIC_REPRESENTATION_CONTEXT ( 3 ) GLOBAL_UNCERTAINTY_ASSIGNED_CONTEXT ( ( #95 ) ) GLOBAL_UNIT_ASSIGNED_CONTEXT ( ( #119, #165, #190 ) ) REPRESENTATION_CONTEXT ( 'NONE', 'WORKASPACE' ) );
#209 = ADVANCED_BREP_SHAPE_REPRESENTATION ( 'd245', ( #125, #145 ), #208 ) ;
#210 = DIRECTION ( 'NONE',  ( 0.000000000000000000, 0.000000000000000000, 1.000000000000000000 ) ) ;
#211 = DIRECTION ( 'NONE',  ( -1.000000000000000000, 1.224646799147353207E-16, 0.000000000000000000 ) ) ;
#212 = FACE_OUTER_BOUND ( 'NONE', #296, .T. ) ;
#213 = EDGE_CURVE ( 'NONE', #128, #48, #2, .T. ) ;
#214 = LINE ( 'NONE', #216, #218 ) ;
#215 = DIRECTION ( 'NONE',  ( -0.000000000000000000, -0.000000000000000000, -1.000000000000000000 ) ) ;
#216 = CARTESIAN_POINT ( 'NONE',  ( 3.000000000000000444, 3.673940397442060361E-16, 165.0000000000000000 ) ) ;
#217 = ADVANCED_FACE ( 'NONE', ( #240 ), #221, .F. ) ;
#218 = VECTOR ( 'NONE', #64, 1000.000000000000000 ) ;
#219 = EDGE_CURVE ( 'NONE', #6, #291, #62, .T. ) ;
#220 = APPROVAL_DATE_TIME ( #103, #1 ) ;
#221 = TOROIDAL_SURFACE ( 'NONE', #151, 3.200000000000000622, 0.2000000000000000111 ) ;
#222 = DATE_TIME_ROLE ( 'creation_date' ) ;
#223 = CARTESIAN_POINT ( 'NONE',  ( 6.000000000000000888, 7.347880794884120722E-16, 5.000000000000000000 ) ) ;
#224 = COORDINATED_UNIVERSAL_TIME_OFFSET ( 1, 0, .AHEAD. ) ;
#225 = EDGE_LOOP ( 'NONE', ( #173, #50 ) ) ;
#226 = EDGE_LOOP ( 'NONE', ( #203, #252, #158, #52 ) ) ;
#227 = PERSON_AND_ORGANIZATION ( #149, #67 ) ;
#228 = DIRECTION ( 'NONE',  ( 0.000000000000000000, 0.000000000000000000, 1.000000000000000000 ) ) ;
#229 = ORIENTED_EDGE ( 'NONE', *, *, #12, .F. ) ;
#230 = CC_DESIGN_PERSON_AND_ORGANIZATION_ASSIGNMENT ( #129, #148, ( #22 ) ) ;
#231 = DIRECTION ( 'NONE',  ( 1.000000000000000000, 0.000000000000000000, 0.000000000000000000 ) ) ;
#232 = APPROVAL ( #8, 'NEURÈENÝ' ) ;
#233 = FACE_OUTER_BOUND ( 'NONE', #226, .T. ) ;
#234 = APPROVAL_PERSON_ORGANIZATION ( #286, #284, #98 ) ;
#235 = PLANE ( 'NONE',  #44 ) ;
#236 = CARTESIAN_POINT ( 'NONE',  ( -3.200000000000000622, 3.918869757271530953E-16, 5.200000000000009948 ) ) ;
#237 = DIRECTION ( 'NONE',  ( 1.000000000000000000, 0.000000000000000000, 0.000000000000000000 ) ) ;
#238 = DIRECTION ( 'NONE',  ( 0.000000000000000000, 0.000000000000000000, 1.000000000000000000 ) ) ;
#239 = ORIENTED_EDGE ( 'NONE', *, *, #213, .T. ) ;
#240 = FACE_OUTER_BOUND ( 'NONE', #72, .T. ) ;
#241 = AXIS2_PLACEMENT_3D ( 'NONE', #9, #82, #109 ) ;
#242 = TOROIDAL_SURFACE ( 'NONE', #110, 3.200000000000000622, 0.2000000000000000111 ) ;
#243 = DATE_AND_TIME ( #107, #56 ) ;
#244 = PERSON_AND_ORGANIZATION ( #149, #67 ) ;
#245 = ORIENTED_EDGE ( 'NONE', *, *, #96, .F. ) ;
#246 = ORIENTED_EDGE ( 'NONE', *, *, #25, .F. ) ;
#247 = PERSON_AND_ORGANIZATION_ROLE ( 'classification_officer' ) ;
#248 = EDGE_LOOP ( 'NONE', ( #31, #177 ) ) ;
#249 = PERSON_AND_ORGANIZATION ( #149, #67 ) ;
#250 = EDGE_CURVE ( 'NONE', #291, #6, #264, .T. ) ;
#251 = AXIS2_PLACEMENT_3D ( 'NONE', #43, #215, #59 ) ;
#252 = ORIENTED_EDGE ( 'NONE', *, *, #66, .F. ) ;
#253 = FACE_OUTER_BOUND ( 'NONE', #201, .T. ) ;
#254 = CYLINDRICAL_SURFACE ( 'NONE', #241, 6.000000000000000888 ) ;
#255 = EDGE_CURVE ( 'NONE', #205, #178, #84, .T. ) ;
#256 = CARTESIAN_POINT ( 'NONE',  ( -3.000000000000000444, 0.000000000000000000, 165.0000000000000000 ) ) ;
#257 = CARTESIAN_POINT ( 'NONE',  ( -3.000000000000000444, 0.000000000000000000, 5.200000000000009948 ) ) ;
#258 = CIRCLE ( 'NONE', #192, 6.000000000000000888 ) ;
#259 = DIRECTION ( 'NONE',  ( -1.000000000000000000, 0.000000000000000000, 0.000000000000000000 ) ) ;
#260 = LINE ( 'NONE', #89, #123 ) ;
#261 = CARTESIAN_POINT ( 'NONE',  ( 0.000000000000000000, 0.000000000000000000, 0.000000000000000000 ) ) ;
#262 = DIRECTION ( 'NONE',  ( -0.000000000000000000, -0.000000000000000000, -1.000000000000000000 ) ) ;
#263 = AXIS2_PLACEMENT_3D ( 'NONE', #236, #279, #211 ) ;
#264 = CIRCLE ( 'NONE', #182, 6.000000000000000888 ) ;
#265 = CC_DESIGN_SECURITY_CLASSIFICATION ( #68, ( #90 ) ) ;
#266 = CARTESIAN_POINT ( 'NONE',  ( 0.000000000000000000, 0.000000000000000000, 0.000000000000000000 ) ) ;
#267 = COORDINATED_UNIVERSAL_TIME_OFFSET ( 1, 0, .AHEAD. ) ;
#268 = ORIENTED_EDGE ( 'NONE', *, *, #187, .F. ) ;
#269 = EDGE_CURVE ( 'NONE', #275, #130, #258, .T. ) ;
#270 = LOCAL_TIME ( 14, 42, 21.00000000000000000, #172 ) ;
#271 = LINE ( 'NONE', #58, #79 ) ;
#272 = AXIS2_PLACEMENT_3D ( 'NONE', #159, #210, #14 ) ;
#273 = ORIENTED_EDGE ( 'NONE', *, *, #255, .F. ) ;
#274 = APPROVAL_STATUS ( 'not_yet_approved' ) ;
#275 = VERTEX_POINT ( 'NONE', #15 ) ;
#276 = CARTESIAN_POINT ( 'NONE',  ( 0.000000000000000000, 0.000000000000000000, 5.000000000000000000 ) ) ;
#277 = FACE_OUTER_BOUND ( 'NONE', #53, .T. ) ;
#278 = DIRECTION ( 'NONE',  ( 0.000000000000000000, 0.000000000000000000, 1.000000000000000000 ) ) ;
#279 = DIRECTION ( 'NONE',  ( 1.224646799147353207E-16, 1.000000000000000000, -0.000000000000000000 ) ) ;
#280 = DIRECTION ( 'NONE',  ( 0.000000000000000000, 0.000000000000000000, 1.000000000000000000 ) ) ;
#281 = DIRECTION ( 'NONE',  ( 1.000000000000000000, 0.000000000000000000, 0.000000000000000000 ) ) ;
#282 = AXIS2_PLACEMENT_3D ( 'NONE', #36, #228, #231 ) ;
#283 = CIRCLE ( 'NONE', #108, 3.000000000000000444 ) ;
#284 = APPROVAL ( #78, 'NEURÈENÝ' ) ;
#285 = CC_DESIGN_APPROVAL ( #284, ( #22 ) ) ;
#286 = PERSON_AND_ORGANIZATION ( #149, #67 ) ;
#287 = AXIS2_PLACEMENT_3D ( 'NONE', #18, #116, #191 ) ;
#288 = SECURITY_CLASSIFICATION_LEVEL ( 'unclassified' ) ;
#289 = ORIENTED_EDGE ( 'NONE', *, *, #199, .T. ) ;
#290 = PERSON_AND_ORGANIZATION ( #149, #67 ) ;
#291 = VERTEX_POINT ( 'NONE', #300 ) ;
#292 = PERSON_AND_ORGANIZATION_ROLE ( 'design_supplier' ) ;
#293 = ORIENTED_EDGE ( 'NONE', *, *, #206, .F. ) ;
#294 = ORIENTED_EDGE ( 'NONE', *, *, #187, .T. ) ;
#295 = CARTESIAN_POINT ( 'NONE',  ( 0.000000000000000000, 0.000000000000000000, 165.0000000000000000 ) ) ;
#296 = EDGE_LOOP ( 'NONE', ( #174, #132, #111, #153 ) ) ;
#297 = CYLINDRICAL_SURFACE ( 'NONE', #20, 6.000000000000000888 ) ;
#298 = AXIS2_PLACEMENT_3D ( 'NONE', #143, #238, #186 ) ;
#299 = CARTESIAN_POINT ( 'NONE',  ( 0.000000000000000000, 0.000000000000000000, 165.0000000000000000 ) ) ;
#300 = CARTESIAN_POINT ( 'NONE',  ( -6.000000000000000888, 0.000000000000000000, 5.000000000000000000 ) ) ;
#301 = CARTESIAN_POINT ( 'NONE',  ( -6.000000000000000888, 0.000000000000000000, 5.000000000000000000 ) ) ;
#302 = DIRECTION ( 'NONE',  ( -1.000000000000000000, 0.000000000000000000, 0.000000000000000000 ) ) ;
#303 = FACE_OUTER_BOUND ( 'NONE', #77, .T. ) ;
#304 = EDGE_CURVE ( 'NONE', #130, #275, #105, .T. ) ;
#305 = CIRCLE ( 'NONE', #171, 3.000000000000000444 ) ;
#306 = APPLICATION_CONTEXT ( 'configuration controlled 3d designs of mechanical parts and assemblies' ) ;
#307 = CC_DESIGN_PERSON_AND_ORGANIZATION_ASSIGNMENT ( #249, #247, ( #68 ) ) ;
ENDSEC;
END-ISO-10303-21;
