ISO-10303-21;
HEADER;
FILE_DESCRIPTION (( 'STEP AP203' ),
    '1' );
FILE_NAME ('89fa.STEP',
    '2022-07-07T12:21:58',
    ( '' ),
    ( '' ),
    'SwSTEP 2.0',
    'SolidWorks 2019',
    '' );
FILE_SCHEMA (( 'CONFIG_CONTROL_DESIGN' ));
ENDSEC;

DATA;
#1 = ADVANCED_FACE ( 'NONE', ( #102 ), #167, .F. ) ;
#2 = PERSON_AND_ORGANIZATION ( #224, #301 ) ;
#3 = APPROVAL_ROLE ( '' ) ;
#4 = PERSON_AND_ORGANIZATION ( #224, #301 ) ;
#5 = ORIENTED_EDGE ( 'NONE', *, *, #18, .F. ) ;
#6 = ORIENTED_EDGE ( 'NONE', *, *, #236, .T. ) ;
#7 = DATE_AND_TIME ( #53, #268 ) ;
#8 = ORIENTED_EDGE ( 'NONE', *, *, #263, .T. ) ;
#9 = CIRCLE ( 'NONE', #251, 0.1999999999999996503 ) ;
#10 = ORIENTED_EDGE ( 'NONE', *, *, #26, .F. ) ;
#11 = ORIENTED_EDGE ( 'NONE', *, *, #158, .F. ) ;
#12 = DIRECTION ( 'NONE',  ( 0.000000000000000000, 0.000000000000000000, 1.000000000000000000 ) ) ;
#13 = CARTESIAN_POINT ( 'NONE',  ( -7.000000000000000000, 0.000000000000000000, 322.0000000000000000 ) ) ;
#14 = DIRECTION ( 'NONE',  ( -0.000000000000000000, -0.000000000000000000, -1.000000000000000000 ) ) ;
#15 = DIRECTION ( 'NONE',  ( 1.000000000000000000, 0.000000000000000000, 0.000000000000000000 ) ) ;
#16 = DIRECTION ( 'NONE',  ( 0.000000000000000000, 0.000000000000000000, 1.000000000000000000 ) ) ;
#17 = DIRECTION ( 'NONE',  ( 1.000000000000000000, 0.000000000000000000, 0.000000000000000000 ) ) ;
#18 = EDGE_CURVE ( 'NONE', #146, #295, #120, .T. ) ;
#19 = AXIS2_PLACEMENT_3D ( 'NONE', #297, #90, #273 ) ;
#20 = LOCAL_TIME ( 14, 21, 58.00000000000000000, #164 ) ;
#21 = PLANE ( 'NONE',  #216 ) ;
#22 = CARTESIAN_POINT ( 'NONE',  ( 0.000000000000000000, 0.000000000000000000, 322.0000000000000000 ) ) ;
#23 = PERSON_AND_ORGANIZATION_ROLE ( 'design_owner' ) ;
#24 = AXIS2_PLACEMENT_3D ( 'NONE', #302, #248, #40 ) ;
#25 = MECHANICAL_CONTEXT ( 'NONE', #131, 'mechanical' ) ;
#26 = EDGE_CURVE ( 'NONE', #146, #58, #151, .T. ) ;
#27 = APPROVAL_DATE_TIME ( #7, #221 ) ;
#28 = ORIENTED_EDGE ( 'NONE', *, *, #112, .T. ) ;
#29 = ADVANCED_FACE ( 'NONE', ( #299 ), #132, .T. ) ;
#30 = ORIENTED_EDGE ( 'NONE', *, *, #152, .T. ) ;
#31 = APPROVAL_PERSON_ORGANIZATION ( #122, #221, #3 ) ;
#32 = CC_DESIGN_PERSON_AND_ORGANIZATION_ASSIGNMENT ( #2, #72, ( #124 ) ) ;
#33 = EDGE_LOOP ( 'NONE', ( #11, #77, #129, #103 ) ) ;
#34 = VERTEX_POINT ( 'NONE', #13 ) ;
#35 = ADVANCED_FACE ( 'NONE', ( #228 ), #174, .T. ) ;
#36 = DIRECTION ( 'NONE',  ( 1.000000000000000000, 0.000000000000000000, 0.000000000000000000 ) ) ;
#37 = AXIS2_PLACEMENT_3D ( 'NONE', #41, #252, #17 ) ;
#38 = DIRECTION ( 'NONE',  ( 0.000000000000000000, 0.000000000000000000, 1.000000000000000000 ) ) ;
#39 = DIRECTION ( 'NONE',  ( 1.000000000000000000, 0.000000000000000000, -0.000000000000000000 ) ) ;
#40 = DIRECTION ( 'NONE',  ( -1.000000000000000000, 0.000000000000000000, 0.000000000000000000 ) ) ;
#41 = CARTESIAN_POINT ( 'NONE',  ( 0.000000000000000000, 0.000000000000000000, 322.0000000000000000 ) ) ;
#42 = EDGE_CURVE ( 'NONE', #168, #190, #62, .T. ) ;
#43 = CARTESIAN_POINT ( 'NONE',  ( -7.200000000000000178, 8.817456953860942303E-16, 7.199999999999984190 ) ) ;
#44 = PRODUCT_RELATED_PRODUCT_CATEGORY ( 'detail', '', ( #115 ) ) ;
#45 = CIRCLE ( 'NONE', #116, 7.200000000000000178 ) ;
#46 = CARTESIAN_POINT ( 'NONE',  ( 0.000000000000000000, 0.000000000000000000, 7.199999999999984190 ) ) ;
#47 =( NAMED_UNIT ( * ) SI_UNIT ( $, .STERADIAN. ) SOLID_ANGLE_UNIT ( ) );
#48 = PERSON_AND_ORGANIZATION ( #224, #301 ) ;
#49 = AXIS2_PLACEMENT_3D ( 'NONE', #92, #181, #65 ) ;
#50 = DATE_AND_TIME ( #254, #63 ) ;
#51 = DIRECTION ( 'NONE',  ( 1.000000000000000000, 0.000000000000000000, 0.000000000000000000 ) ) ;
#52 = PRODUCT_DEFINITION ( 'NEZNÁMÝ', '', #292, #180 ) ;
#53 = CALENDAR_DATE ( 2022, 7, 7 ) ;
#54 = ORIENTED_EDGE ( 'NONE', *, *, #236, .F. ) ;
#55 = VECTOR ( 'NONE', #157, 1000.000000000000000 ) ;
#56 = EDGE_LOOP ( 'NONE', ( #189, #214, #128, #260 ) ) ;
#57 = EDGE_LOOP ( 'NONE', ( #265, #101 ) ) ;
#58 = VERTEX_POINT ( 'NONE', #87 ) ;
#59 = DIRECTION ( 'NONE',  ( -1.000000000000000000, 0.000000000000000000, 0.000000000000000000 ) ) ;
#60 = DIRECTION ( 'NONE',  ( 1.000000000000000000, 0.000000000000000000, 0.000000000000000000 ) ) ;
#61 = COORDINATED_UNIVERSAL_TIME_OFFSET ( 1, 0, .AHEAD. ) ;
#62 = CIRCLE ( 'NONE', #160, 7.000000000000000000 ) ;
#63 = LOCAL_TIME ( 14, 21, 58.00000000000000000, #162 ) ;
#64 = DIRECTION ( 'NONE',  ( -0.000000000000000000, -0.000000000000000000, -1.000000000000000000 ) ) ;
#65 = DIRECTION ( 'NONE',  ( -1.000000000000000000, 0.000000000000000000, 0.000000000000000000 ) ) ;
#66 = FACE_OUTER_BOUND ( 'NONE', #217, .T. ) ;
#67 = CARTESIAN_POINT ( 'NONE',  ( 7.000000000000000000, 8.572527594031473190E-16, 322.0000000000000000 ) ) ;
#68 = PLANE ( 'NONE',  #262 ) ;
#69 = CYLINDRICAL_SURFACE ( 'NONE', #49, 7.000000000000000000 ) ;
#70 = PERSON_AND_ORGANIZATION ( #224, #301 ) ;
#71 = PRODUCT_DEFINITION_SHAPE ( 'NONE', 'NONE',  #52 ) ;
#72 = PERSON_AND_ORGANIZATION_ROLE ( 'classification_officer' ) ;
#73 = AXIS2_PLACEMENT_3D ( 'NONE', #222, #38, #176 ) ;
#74 = EDGE_CURVE ( 'NONE', #295, #146, #187, .T. ) ;
#75 = PERSON_AND_ORGANIZATION_ROLE ( 'creator' ) ;
#76 = ORIENTED_EDGE ( 'NONE', *, *, #266, .T. ) ;
#77 = ORIENTED_EDGE ( 'NONE', *, *, #42, .F. ) ;
#78 = AXIS2_PLACEMENT_3D ( 'NONE', #245, #16, #270 ) ;
#79 = VERTEX_POINT ( 'NONE', #200 ) ;
#80 = ORIENTED_EDGE ( 'NONE', *, *, #26, .T. ) ;
#81 = ORIENTED_EDGE ( 'NONE', *, *, #288, .F. ) ;
#82 = EDGE_CURVE ( 'NONE', #168, #79, #99, .T. ) ;
#83 = VECTOR ( 'NONE', #64, 1000.000000000000000 ) ;
#84 = CC_DESIGN_PERSON_AND_ORGANIZATION_ASSIGNMENT ( #70, #253, ( #292 ) ) ;
#85 = CARTESIAN_POINT ( 'NONE',  ( -11.00000000000000000, 0.000000000000000000, 7.000000000000000000 ) ) ;
#86 = FACE_OUTER_BOUND ( 'NONE', #293, .T. ) ;
#87 = CARTESIAN_POINT ( 'NONE',  ( -11.00000000000000000, 0.000000000000000000, 0.000000000000000000 ) ) ;
#88 = DIRECTION ( 'NONE',  ( -0.000000000000000000, -0.000000000000000000, -1.000000000000000000 ) ) ;
#89 = AXIS2_PLACEMENT_3D ( 'NONE', #304, #182, #300 ) ;
#90 = DIRECTION ( 'NONE',  ( 0.000000000000000000, 0.000000000000000000, 1.000000000000000000 ) ) ;
#91 = CARTESIAN_POINT ( 'NONE',  ( -7.000000000000000000, 0.000000000000000000, 7.199999999999984190 ) ) ;
#92 = CARTESIAN_POINT ( 'NONE',  ( 0.000000000000000000, 0.000000000000000000, 322.0000000000000000 ) ) ;
#93 =( NAMED_UNIT ( * ) PLANE_ANGLE_UNIT ( ) SI_UNIT ( $, .RADIAN. ) );
#94 = ADVANCED_FACE ( 'NONE', ( #86 ), #104, .F. ) ;
#95 = DATE_AND_TIME ( #207, #197 ) ;
#96 = APPROVAL_ROLE ( '' ) ;
#97 = ADVANCED_FACE ( 'NONE', ( #66 ), #271, .T. ) ;
#98 = CALENDAR_DATE ( 2022, 7, 7 ) ;
#99 = CIRCLE ( 'NONE', #234, 0.1999999999999996503 ) ;
#100 = APPROVAL_ROLE ( '' ) ;
#101 = ORIENTED_EDGE ( 'NONE', *, *, #138, .T. ) ;
#102 = FACE_OUTER_BOUND ( 'NONE', #241, .T. ) ;
#103 = ORIENTED_EDGE ( 'NONE', *, *, #141, .F. ) ;
#104 = TOROIDAL_SURFACE ( 'NONE', #73, 7.200000000000000178, 0.2000000000000000111 ) ;
#105 = ORIENTED_EDGE ( 'NONE', *, *, #112, .F. ) ;
#106 = EDGE_CURVE ( 'NONE', #34, #190, #244, .T. ) ;
#107 = EDGE_LOOP ( 'NONE', ( #237, #238 ) ) ;
#108 = DIRECTION ( 'NONE',  ( 0.000000000000000000, 0.000000000000000000, 1.000000000000000000 ) ) ;
#109 = APPROVAL_PERSON_ORGANIZATION ( #280, #169, #96 ) ;
#110 = CARTESIAN_POINT ( 'NONE',  ( -7.000000000000000000, 0.000000000000000000, 322.0000000000000000 ) ) ;
#111 = DIRECTION ( 'NONE',  ( -0.000000000000000000, -0.000000000000000000, -1.000000000000000000 ) ) ;
#112 = EDGE_CURVE ( 'NONE', #58, #147, #290, .T. ) ;
#113 = CARTESIAN_POINT ( 'NONE',  ( 0.000000000000000000, 0.000000000000000000, 7.199999999999984190 ) ) ;
#114 = DIRECTION ( 'NONE',  ( 1.000000000000000000, 0.000000000000000000, 0.000000000000000000 ) ) ;
#115 = PRODUCT ( '89fa', '89fa', '', ( #25 ) ) ;
#116 = AXIS2_PLACEMENT_3D ( 'NONE', #199, #276, #114 ) ;
#117 = CARTESIAN_POINT ( 'NONE',  ( 11.00000000000000000, 1.347111479062088405E-15, 7.000000000000000000 ) ) ;
#118 =( LENGTH_UNIT ( ) NAMED_UNIT ( * ) SI_UNIT ( .MILLI., .METRE. ) );
#119 = APPROVAL_STATUS ( 'not_yet_approved' ) ;
#120 = CIRCLE ( 'NONE', #19, 11.00000000000000000 ) ;
#121 = COORDINATED_UNIVERSAL_TIME_OFFSET ( 1, 0, .AHEAD. ) ;
#122 = PERSON_AND_ORGANIZATION ( #224, #301 ) ;
#123 = TOROIDAL_SURFACE ( 'NONE', #255, 7.200000000000000178, 0.2000000000000000111 ) ;
#124 = SECURITY_CLASSIFICATION ( '', '', #283 ) ;
#125 = ORIENTED_EDGE ( 'NONE', *, *, #263, .F. ) ;
#126 = DIRECTION ( 'NONE',  ( 0.000000000000000000, 0.000000000000000000, 1.000000000000000000 ) ) ;
#127 = AXIS2_PLACEMENT_3D ( 'NONE', #233, #188, #51 ) ;
#128 = ORIENTED_EDGE ( 'NONE', *, *, #106, .T. ) ;
#129 = ORIENTED_EDGE ( 'NONE', *, *, #82, .T. ) ;
#130 = DIRECTION ( 'NONE',  ( 0.000000000000000000, 0.000000000000000000, 1.000000000000000000 ) ) ;
#131 = APPLICATION_CONTEXT ( 'configuration controlled 3d designs of mechanical parts and assemblies' ) ;
#132 = CYLINDRICAL_SURFACE ( 'NONE', #24, 11.00000000000000000 ) ;
#133 = DIRECTION ( 'NONE',  ( 1.224646799147353207E-16, 1.000000000000000000, -0.000000000000000000 ) ) ;
#134 = DIRECTION ( 'NONE',  ( 1.000000000000000000, 0.000000000000000000, -0.000000000000000000 ) ) ;
#135 = DIRECTION ( 'NONE',  ( 0.000000000000000000, 0.000000000000000000, 1.000000000000000000 ) ) ;
#136 = LINE ( 'NONE', #179, #171 ) ;
#137 = CIRCLE ( 'NONE', #37, 7.000000000000000000 ) ;
#138 = EDGE_CURVE ( 'NONE', #287, #34, #272, .T. ) ;
#139 = DIRECTION ( 'NONE',  ( 1.000000000000000000, 0.000000000000000000, 0.000000000000000000 ) ) ;
#140 = PERSON_AND_ORGANIZATION_ROLE ( 'design_supplier' ) ;
#141 = EDGE_CURVE ( 'NONE', #194, #79, #223, .T. ) ;
#142 = AXIS2_PLACEMENT_3D ( 'NONE', #195, #130, #60 ) ;
#143 = COORDINATED_UNIVERSAL_TIME_OFFSET ( 1, 0, .AHEAD. ) ;
#144 = SHAPE_DEFINITION_REPRESENTATION ( #71, #173 ) ;
#145 = AXIS2_PLACEMENT_3D ( 'NONE', #264, #126, #134 ) ;
#146 = VERTEX_POINT ( 'NONE', #154 ) ;
#147 = VERTEX_POINT ( 'NONE', #203 ) ;
#148 = ORIENTED_EDGE ( 'NONE', *, *, #74, .F. ) ;
#149 = ORIENTED_EDGE ( 'NONE', *, *, #141, .T. ) ;
#150 = ORIENTED_EDGE ( 'NONE', *, *, #152, .F. ) ;
#151 = LINE ( 'NONE', #85, #83 ) ;
#152 = EDGE_CURVE ( 'NONE', #295, #147, #136, .T. ) ;
#153 = DIRECTION ( 'NONE',  ( -0.000000000000000000, -0.000000000000000000, -1.000000000000000000 ) ) ;
#154 = CARTESIAN_POINT ( 'NONE',  ( -11.00000000000000000, 0.000000000000000000, 7.000000000000000000 ) ) ;
#155 = CARTESIAN_POINT ( 'NONE',  ( 0.000000000000000000, 0.000000000000000000, 322.0000000000000000 ) ) ;
#156 = CARTESIAN_POINT ( 'NONE',  ( 0.000000000000000000, 0.000000000000000000, 7.199999999999984190 ) ) ;
#157 = DIRECTION ( 'NONE',  ( -0.000000000000000000, -0.000000000000000000, -1.000000000000000000 ) ) ;
#158 = EDGE_CURVE ( 'NONE', #190, #194, #9, .T. ) ;
#159 = DIRECTION ( 'NONE',  ( 0.000000000000000000, 0.000000000000000000, 1.000000000000000000 ) ) ;
#160 = AXIS2_PLACEMENT_3D ( 'NONE', #113, #12, #202 ) ;
#161 = PERSON_AND_ORGANIZATION ( #224, #301 ) ;
#162 = COORDINATED_UNIVERSAL_TIME_OFFSET ( 1, 0, .AHEAD. ) ;
#163 = APPROVAL_STATUS ( 'not_yet_approved' ) ;
#164 = COORDINATED_UNIVERSAL_TIME_OFFSET ( 1, 0, .AHEAD. ) ;
#165 = EDGE_LOOP ( 'NONE', ( #6, #149 ) ) ;
#166 = CLOSED_SHELL ( 'NONE', ( #94, #35, #29, #97, #232, #1, #191, #294, #281 ) ) ;
#167 = PLANE ( 'NONE',  #145 ) ;
#168 = VERTEX_POINT ( 'NONE', #226 ) ;
#169 = APPROVAL ( #119, 'NEURÈENÝ' ) ;
#170 = ORIENTED_EDGE ( 'NONE', *, *, #42, .T. ) ;
#171 = VECTOR ( 'NONE', #111, 1000.000000000000000 ) ;
#172 = CARTESIAN_POINT ( 'NONE',  ( 0.000000000000000000, 0.000000000000000000, 7.000000000000000000 ) ) ;
#173 = ADVANCED_BREP_SHAPE_REPRESENTATION ( '89fa', ( #209, #127 ), #208 ) ;
#174 = CYLINDRICAL_SURFACE ( 'NONE', #192, 7.000000000000000000 ) ;
#175 = FACE_OUTER_BOUND ( 'NONE', #57, .T. ) ;
#176 = DIRECTION ( 'NONE',  ( 1.000000000000000000, 0.000000000000000000, 0.000000000000000000 ) ) ;
#177 = FACE_OUTER_BOUND ( 'NONE', #33, .T. ) ;
#178 = DIRECTION ( 'NONE',  ( 0.000000000000000000, -1.000000000000000000, 0.000000000000000000 ) ) ;
#179 = CARTESIAN_POINT ( 'NONE',  ( 11.00000000000000000, 1.347111479062088405E-15, 7.000000000000000000 ) ) ;
#180 = DESIGN_CONTEXT ( 'detailed design', #261, 'design' ) ;
#181 = DIRECTION ( 'NONE',  ( -0.000000000000000000, -0.000000000000000000, -1.000000000000000000 ) ) ;
#182 = DIRECTION ( 'NONE',  ( 0.000000000000000000, 0.000000000000000000, 1.000000000000000000 ) ) ;
#183 = AXIS2_PLACEMENT_3D ( 'NONE', #172, #14, #59 ) ;
#184 = APPLICATION_PROTOCOL_DEFINITION ( 'international standard', 'config_control_design', 1994, #131 ) ;
#185 = DATE_AND_TIME ( #98, #256 ) ;
#186 = APPROVAL_DATE_TIME ( #185, #246 ) ;
#187 = CIRCLE ( 'NONE', #78, 11.00000000000000000 ) ;
#188 = DIRECTION ( 'NONE',  ( 0.000000000000000000, 0.000000000000000000, 1.000000000000000000 ) ) ;
#189 = ORIENTED_EDGE ( 'NONE', *, *, #266, .F. ) ;
#190 = VERTEX_POINT ( 'NONE', #91 ) ;
#191 = ADVANCED_FACE ( 'NONE', ( #249 ), #69, .T. ) ;
#192 = AXIS2_PLACEMENT_3D ( 'NONE', #155, #153, #198 ) ;
#193 = ORIENTED_EDGE ( 'NONE', *, *, #106, .F. ) ;
#194 = VERTEX_POINT ( 'NONE', #305 ) ;
#195 = CARTESIAN_POINT ( 'NONE',  ( 0.000000000000000000, 0.000000000000000000, 322.0000000000000000 ) ) ;
#196 = CIRCLE ( 'NONE', #89, 11.00000000000000000 ) ;
#197 = LOCAL_TIME ( 14, 21, 58.00000000000000000, #121 ) ;
#198 = DIRECTION ( 'NONE',  ( -1.000000000000000000, 0.000000000000000000, 0.000000000000000000 ) ) ;
#199 = CARTESIAN_POINT ( 'NONE',  ( 0.000000000000000000, 0.000000000000000000, 7.000000000000000000 ) ) ;
#200 = CARTESIAN_POINT ( 'NONE',  ( 7.200000000000000178, 0.000000000000000000, 6.999999999999992006 ) ) ;
#201 = DIRECTION ( 'NONE',  ( 0.000000000000000000, 0.000000000000000000, 1.000000000000000000 ) ) ;
#202 = DIRECTION ( 'NONE',  ( 1.000000000000000000, 0.000000000000000000, 0.000000000000000000 ) ) ;
#203 = CARTESIAN_POINT ( 'NONE',  ( 11.00000000000000000, 1.347111479062088405E-15, 0.000000000000000000 ) ) ;
#204 = CC_DESIGN_SECURITY_CLASSIFICATION ( #124, ( #292 ) ) ;
#205 = CC_DESIGN_DATE_AND_TIME_ASSIGNMENT ( #50, #235, ( #124 ) ) ;
#206 = LINE ( 'NONE', #67, #306 ) ;
#207 = CALENDAR_DATE ( 2022, 7, 7 ) ;
#208 =( GEOMETRIC_REPRESENTATION_CONTEXT ( 3 ) GLOBAL_UNCERTAINTY_ASSIGNED_CONTEXT ( ( #282 ) ) GLOBAL_UNIT_ASSIGNED_CONTEXT ( ( #118, #93, #47 ) ) REPRESENTATION_CONTEXT ( 'NONE', 'WORKASPACE' ) );
#209 = MANIFOLD_SOLID_BREP ( 'Zaoblit1', #166 ) ;
#210 = APPROVAL_STATUS ( 'not_yet_approved' ) ;
#211 = APPLICATION_PROTOCOL_DEFINITION ( 'international standard', 'config_control_design', 1994, #261 ) ;
#212 = CIRCLE ( 'NONE', #285, 7.000000000000000000 ) ;
#213 = ORIENTED_EDGE ( 'NONE', *, *, #82, .F. ) ;
#214 = ORIENTED_EDGE ( 'NONE', *, *, #242, .F. ) ;
#215 = CC_DESIGN_DATE_AND_TIME_ASSIGNMENT ( #259, #257, ( #52 ) ) ;
#216 = AXIS2_PLACEMENT_3D ( 'NONE', #22, #135, #229 ) ;
#217 = EDGE_LOOP ( 'NONE', ( #150, #5, #80, #28 ) ) ;
#218 = ORIENTED_EDGE ( 'NONE', *, *, #138, .F. ) ;
#219 = CC_DESIGN_PERSON_AND_ORGANIZATION_ASSIGNMENT ( #161, #23, ( #115 ) ) ;
#220 = CARTESIAN_POINT ( 'NONE',  ( 0.000000000000000000, 0.000000000000000000, 0.000000000000000000 ) ) ;
#221 = APPROVAL ( #210, 'NEURÈENÝ' ) ;
#222 = CARTESIAN_POINT ( 'NONE',  ( 0.000000000000000000, 0.000000000000000000, 7.199999999999984190 ) ) ;
#223 = CIRCLE ( 'NONE', #267, 7.200000000000000178 ) ;
#224 = PERSON ( 'NEURÈENÝ', 'NEURÈENÝ', 'NEURÈENÝ', ('NEURÈENÝ'), ('NEURÈENÝ'), ('NEURÈENÝ') ) ;
#225 = CARTESIAN_POINT ( 'NONE',  ( 7.200000000000000178, 0.000000000000000000, 7.199999999999984190 ) ) ;
#226 = CARTESIAN_POINT ( 'NONE',  ( 7.000000000000000000, 8.572527594031473190E-16, 7.199999999999984190 ) ) ;
#227 = CC_DESIGN_PERSON_AND_ORGANIZATION_ASSIGNMENT ( #286, #75, ( #52 ) ) ;
#228 = FACE_OUTER_BOUND ( 'NONE', #243, .T. ) ;
#229 = DIRECTION ( 'NONE',  ( 1.000000000000000000, 0.000000000000000000, -0.000000000000000000 ) ) ;
#230 = FACE_BOUND ( 'NONE', #165, .T. ) ;
#231 = DIRECTION ( 'NONE',  ( -0.000000000000000000, -0.000000000000000000, -1.000000000000000000 ) ) ;
#232 = ADVANCED_FACE ( 'NONE', ( #230, #277 ), #68, .T. ) ;
#233 = CARTESIAN_POINT ( 'NONE',  ( 0.000000000000000000, 0.000000000000000000, 0.000000000000000000 ) ) ;
#234 = AXIS2_PLACEMENT_3D ( 'NONE', #225, #178, #275 ) ;
#235 = DATE_TIME_ROLE ( 'classification_date' ) ;
#236 = EDGE_CURVE ( 'NONE', #79, #194, #45, .T. ) ;
#237 = ORIENTED_EDGE ( 'NONE', *, *, #18, .T. ) ;
#238 = ORIENTED_EDGE ( 'NONE', *, *, #74, .T. ) ;
#239 = AXIS2_PLACEMENT_3D ( 'NONE', #220, #108, #36 ) ;
#240 = CC_DESIGN_APPROVAL ( #169, ( #292 ) ) ;
#241 = EDGE_LOOP ( 'NONE', ( #105, #125 ) ) ;
#242 = EDGE_CURVE ( 'NONE', #34, #287, #137, .T. ) ;
#243 = EDGE_LOOP ( 'NONE', ( #218, #76, #170, #193 ) ) ;
#244 = LINE ( 'NONE', #110, #55 ) ;
#245 = CARTESIAN_POINT ( 'NONE',  ( 0.000000000000000000, 0.000000000000000000, 7.000000000000000000 ) ) ;
#246 = APPROVAL ( #163, 'NEURÈENÝ' ) ;
#247 = CARTESIAN_POINT ( 'NONE',  ( 0.000000000000000000, 0.000000000000000000, 7.000000000000000000 ) ) ;
#248 = DIRECTION ( 'NONE',  ( -0.000000000000000000, -0.000000000000000000, -1.000000000000000000 ) ) ;
#249 = FACE_OUTER_BOUND ( 'NONE', #56, .T. ) ;
#250 = DIRECTION ( 'NONE',  ( -1.000000000000000000, 1.224646799147358384E-16, 0.000000000000000000 ) ) ;
#251 = AXIS2_PLACEMENT_3D ( 'NONE', #43, #133, #250 ) ;
#252 = DIRECTION ( 'NONE',  ( 0.000000000000000000, 0.000000000000000000, 1.000000000000000000 ) ) ;
#253 = PERSON_AND_ORGANIZATION_ROLE ( 'creator' ) ;
#254 = CALENDAR_DATE ( 2022, 7, 7 ) ;
#255 = AXIS2_PLACEMENT_3D ( 'NONE', #46, #298, #139 ) ;
#256 = LOCAL_TIME ( 14, 21, 58.00000000000000000, #143 ) ;
#257 = DATE_TIME_ROLE ( 'creation_date' ) ;
#258 = CC_DESIGN_PERSON_AND_ORGANIZATION_ASSIGNMENT ( #48, #140, ( #292 ) ) ;
#259 = DATE_AND_TIME ( #307, #20 ) ;
#260 = ORIENTED_EDGE ( 'NONE', *, *, #288, .T. ) ;
#261 = APPLICATION_CONTEXT ( 'configuration controlled 3d designs of mechanical parts and assemblies' ) ;
#262 = AXIS2_PLACEMENT_3D ( 'NONE', #247, #159, #39 ) ;
#263 = EDGE_CURVE ( 'NONE', #147, #58, #196, .T. ) ;
#264 = CARTESIAN_POINT ( 'NONE',  ( 0.000000000000000000, 0.000000000000000000, 0.000000000000000000 ) ) ;
#265 = ORIENTED_EDGE ( 'NONE', *, *, #242, .T. ) ;
#266 = EDGE_CURVE ( 'NONE', #287, #168, #206, .T. ) ;
#267 = AXIS2_PLACEMENT_3D ( 'NONE', #296, #231, #15 ) ;
#268 = LOCAL_TIME ( 14, 21, 58.00000000000000000, #61 ) ;
#269 = ORIENTED_EDGE ( 'NONE', *, *, #158, .T. ) ;
#270 = DIRECTION ( 'NONE',  ( 1.000000000000000000, 0.000000000000000000, 0.000000000000000000 ) ) ;
#271 = CYLINDRICAL_SURFACE ( 'NONE', #183, 11.00000000000000000 ) ;
#272 = CIRCLE ( 'NONE', #142, 7.000000000000000000 ) ;
#273 = DIRECTION ( 'NONE',  ( 1.000000000000000000, 0.000000000000000000, 0.000000000000000000 ) ) ;
#274 = CARTESIAN_POINT ( 'NONE',  ( 7.000000000000000000, 8.572527594031473190E-16, 322.0000000000000000 ) ) ;
#275 = DIRECTION ( 'NONE',  ( 0.000000000000000000, 0.000000000000000000, -1.000000000000000000 ) ) ;
#276 = DIRECTION ( 'NONE',  ( -0.000000000000000000, -0.000000000000000000, -1.000000000000000000 ) ) ;
#277 = FACE_OUTER_BOUND ( 'NONE', #107, .T. ) ;
#278 = DIRECTION ( 'NONE',  ( 1.000000000000000000, 0.000000000000000000, 0.000000000000000000 ) ) ;
#279 = APPROVAL_PERSON_ORGANIZATION ( #4, #246, #100 ) ;
#280 = PERSON_AND_ORGANIZATION ( #224, #301 ) ;
#281 = ADVANCED_FACE ( 'NONE', ( #177 ), #123, .F. ) ;
#282 = UNCERTAINTY_MEASURE_WITH_UNIT (LENGTH_MEASURE( 1.000000000000000082E-05 ), #118, 'distance_accuracy_value', 'NONE');
#283 = SECURITY_CLASSIFICATION_LEVEL ( 'unclassified' ) ;
#284 = APPROVAL_DATE_TIME ( #95, #169 ) ;
#285 = AXIS2_PLACEMENT_3D ( 'NONE', #156, #201, #278 ) ;
#286 = PERSON_AND_ORGANIZATION ( #224, #301 ) ;
#287 = VERTEX_POINT ( 'NONE', #274 ) ;
#288 = EDGE_CURVE ( 'NONE', #190, #168, #212, .T. ) ;
#289 = EDGE_LOOP ( 'NONE', ( #148, #30, #8, #10 ) ) ;
#290 = CIRCLE ( 'NONE', #239, 11.00000000000000000 ) ;
#291 = CC_DESIGN_APPROVAL ( #221, ( #124 ) ) ;
#292 = PRODUCT_DEFINITION_FORMATION_WITH_SPECIFIED_SOURCE ( 'LIBOVOLNÝ', '', #115, .NOT_KNOWN. ) ;
#293 = EDGE_LOOP ( 'NONE', ( #81, #269, #54, #213 ) ) ;
#294 = ADVANCED_FACE ( 'NONE', ( #175 ), #21, .T. ) ;
#295 = VERTEX_POINT ( 'NONE', #117 ) ;
#296 = CARTESIAN_POINT ( 'NONE',  ( 0.000000000000000000, 0.000000000000000000, 7.000000000000000000 ) ) ;
#297 = CARTESIAN_POINT ( 'NONE',  ( 0.000000000000000000, 0.000000000000000000, 7.000000000000000000 ) ) ;
#298 = DIRECTION ( 'NONE',  ( 0.000000000000000000, 0.000000000000000000, 1.000000000000000000 ) ) ;
#299 = FACE_OUTER_BOUND ( 'NONE', #289, .T. ) ;
#300 = DIRECTION ( 'NONE',  ( 1.000000000000000000, 0.000000000000000000, 0.000000000000000000 ) ) ;
#301 = ORGANIZATION ( 'NEURÈENÝ', 'NEURÈENÝ', '' ) ;
#302 = CARTESIAN_POINT ( 'NONE',  ( 0.000000000000000000, 0.000000000000000000, 7.000000000000000000 ) ) ;
#303 = CC_DESIGN_APPROVAL ( #246, ( #52 ) ) ;
#304 = CARTESIAN_POINT ( 'NONE',  ( 0.000000000000000000, 0.000000000000000000, 0.000000000000000000 ) ) ;
#305 = CARTESIAN_POINT ( 'NONE',  ( -7.200000000000000178, 8.817456953860942303E-16, 6.999999999999992006 ) ) ;
#306 = VECTOR ( 'NONE', #88, 1000.000000000000000 ) ;
#307 = CALENDAR_DATE ( 2022, 7, 7 ) ;
ENDSEC;
END-ISO-10303-21;
