ISO-10303-21;
HEADER;
FILE_DESCRIPTION (( 'STEP AP203' ),
    '1' );
FILE_NAME ('ed77.STEP',
    '2022-07-07T12:48:13',
    ( '' ),
    ( '' ),
    'SwSTEP 2.0',
    'SolidWorks 2019',
    '' );
FILE_SCHEMA (( 'CONFIG_CONTROL_DESIGN' ));
ENDSEC;

DATA;
#1 = ORIENTED_EDGE ( 'NONE', *, *, #272, .F. ) ;
#2 = ORIENTED_EDGE ( 'NONE', *, *, #302, .T. ) ;
#3 = CARTESIAN_POINT ( 'NONE',  ( 0.000000000000000000, 0.000000000000000000, 3.000000000000000000 ) ) ;
#4 = ORIENTED_EDGE ( 'NONE', *, *, #248, .T. ) ;
#5 = PERSON_AND_ORGANIZATION_ROLE ( 'creator' ) ;
#6 = CIRCLE ( 'NONE', #274, 4.000000000000000000 ) ;
#7 = ORIENTED_EDGE ( 'NONE', *, *, #163, .F. ) ;
#8 = EDGE_CURVE ( 'NONE', #239, #98, #187, .T. ) ;
#9 = DATE_AND_TIME ( #250, #160 ) ;
#10 = SECURITY_CLASSIFICATION_LEVEL ( 'unclassified' ) ;
#11 = PERSON_AND_ORGANIZATION_ROLE ( 'classification_officer' ) ;
#12 = CARTESIAN_POINT ( 'NONE',  ( 0.000000000000000000, 0.000000000000000000, 0.000000000000000000 ) ) ;
#13 = DIRECTION ( 'NONE',  ( 1.000000000000000000, 0.000000000000000000, 0.000000000000000000 ) ) ;
#14 = DIRECTION ( 'NONE',  ( -0.000000000000000000, -0.000000000000000000, -1.000000000000000000 ) ) ;
#15 = AXIS2_PLACEMENT_3D ( 'NONE', #38, #122, #230 ) ;
#16 = CARTESIAN_POINT ( 'NONE',  ( 0.000000000000000000, 0.000000000000000000, 163.0000000000000000 ) ) ;
#17 = CARTESIAN_POINT ( 'NONE',  ( -4.000000000000000000, 0.000000000000000000, 3.000000000000000000 ) ) ;
#18 = DIRECTION ( 'NONE',  ( 1.000000000000000000, 0.000000000000000000, -0.000000000000000000 ) ) ;
#19 = EDGE_CURVE ( 'NONE', #154, #135, #24, .T. ) ;
#20 = CARTESIAN_POINT ( 'NONE',  ( 0.000000000000000000, 0.000000000000000000, 3.200000000000008171 ) ) ;
#21 = PRODUCT_DEFINITION_FORMATION_WITH_SPECIFIED_SOURCE ( 'LIBOVOLNÝ', '', #95, .NOT_KNOWN. ) ;
#22 = CARTESIAN_POINT ( 'NONE',  ( 0.000000000000000000, 0.000000000000000000, 163.0000000000000000 ) ) ;
#23 = EDGE_LOOP ( 'NONE', ( #75, #265 ) ) ;
#24 = CIRCLE ( 'NONE', #123, 0.2000000000000000944 ) ;
#25 = FACE_BOUND ( 'NONE', #191, .T. ) ;
#26 = ORIENTED_EDGE ( 'NONE', *, *, #126, .T. ) ;
#27 = ORIENTED_EDGE ( 'NONE', *, *, #80, .F. ) ;
#28 = PERSON_AND_ORGANIZATION ( #227, #174 ) ;
#29 = CC_DESIGN_PERSON_AND_ORGANIZATION_ASSIGNMENT ( #138, #5, ( #21 ) ) ;
#30 = EDGE_LOOP ( 'NONE', ( #242, #287 ) ) ;
#31 = PERSON_AND_ORGANIZATION ( #227, #174 ) ;
#32 = EDGE_CURVE ( 'NONE', #154, #149, #292, .T. ) ;
#33 = SHAPE_DEFINITION_REPRESENTATION ( #67, #70 ) ;
#34 = CALENDAR_DATE ( 2022, 7, 7 ) ;
#35 = AXIS2_PLACEMENT_3D ( 'NONE', #282, #190, #96 ) ;
#36 = CARTESIAN_POINT ( 'NONE',  ( 4.000000000000000000, 4.898587196589412829E-16, 0.000000000000000000 ) ) ;
#37 = ADVANCED_FACE ( 'NONE', ( #25, #307 ), #129, .T. ) ;
#38 = CARTESIAN_POINT ( 'NONE',  ( 0.000000000000000000, 0.000000000000000000, 3.200000000000008171 ) ) ;
#39 = AXIS2_PLACEMENT_3D ( 'NONE', #195, #213, #50 ) ;
#40 =( NAMED_UNIT ( * ) SI_UNIT ( $, .STERADIAN. ) SOLID_ANGLE_UNIT ( ) );
#41 = CARTESIAN_POINT ( 'NONE',  ( 0.000000000000000000, 0.000000000000000000, 163.0000000000000000 ) ) ;
#42 = AXIS2_PLACEMENT_3D ( 'NONE', #16, #59, #275 ) ;
#43 = DIRECTION ( 'NONE',  ( 0.000000000000000000, 0.000000000000000000, 1.000000000000000000 ) ) ;
#44 = CC_DESIGN_DATE_AND_TIME_ASSIGNMENT ( #271, #267, ( #189 ) ) ;
#45 = CARTESIAN_POINT ( 'NONE',  ( 0.000000000000000000, 0.000000000000000000, 0.000000000000000000 ) ) ;
#46 = FACE_OUTER_BOUND ( 'NONE', #103, .T. ) ;
#47 =( GEOMETRIC_REPRESENTATION_CONTEXT ( 3 ) GLOBAL_UNCERTAINTY_ASSIGNED_CONTEXT ( ( #130 ) ) GLOBAL_UNIT_ASSIGNED_CONTEXT ( ( #158, #256, #40 ) ) REPRESENTATION_CONTEXT ( 'NONE', 'WORKASPACE' ) );
#48 = VERTEX_POINT ( 'NONE', #291 ) ;
#49 = EDGE_CURVE ( 'NONE', #266, #124, #111, .T. ) ;
#50 = DIRECTION ( 'NONE',  ( 1.000000000000000000, 0.000000000000000000, 0.000000000000000000 ) ) ;
#51 = EDGE_LOOP ( 'NONE', ( #201, #288, #74, #215 ) ) ;
#52 = AXIS2_PLACEMENT_3D ( 'NONE', #168, #115, #299 ) ;
#53 = AXIS2_PLACEMENT_3D ( 'NONE', #304, #232, #181 ) ;
#54 = CC_DESIGN_APPROVAL ( #85, ( #21 ) ) ;
#55 = APPROVAL ( #185, 'NEURÈENÝ' ) ;
#56 = AXIS2_PLACEMENT_3D ( 'NONE', #64, #188, #253 ) ;
#57 = ADVANCED_FACE ( 'NONE', ( #46 ), #208, .T. ) ;
#58 = APPROVAL_STATUS ( 'not_yet_approved' ) ;
#59 = DIRECTION ( 'NONE',  ( 0.000000000000000000, 0.000000000000000000, 1.000000000000000000 ) ) ;
#60 = CARTESIAN_POINT ( 'NONE',  ( -2.250000000000000000, 0.000000000000000000, 163.0000000000000000 ) ) ;
#61 = LOCAL_TIME ( 14, 48, 13.00000000000000000, #296 ) ;
#62 = DIRECTION ( 'NONE',  ( -0.000000000000000000, -0.000000000000000000, -1.000000000000000000 ) ) ;
#63 = FACE_OUTER_BOUND ( 'NONE', #198, .T. ) ;
#64 = CARTESIAN_POINT ( 'NONE',  ( 0.000000000000000000, 0.000000000000000000, 3.000000000000000000 ) ) ;
#65 = DIRECTION ( 'NONE',  ( 1.000000000000000000, 0.000000000000000000, 0.000000000000000000 ) ) ;
#66 = DIRECTION ( 'NONE',  ( -1.000000000000000000, 0.000000000000000000, 0.000000000000000000 ) ) ;
#67 = PRODUCT_DEFINITION_SHAPE ( 'NONE', 'NONE',  #285 ) ;
#68 = VECTOR ( 'NONE', #14, 1000.000000000000000 ) ;
#69 = CARTESIAN_POINT ( 'NONE',  ( 0.000000000000000000, 0.000000000000000000, 0.000000000000000000 ) ) ;
#70 = ADVANCED_BREP_SHAPE_REPRESENTATION ( 'ed77', ( #150, #261 ), #47 ) ;
#71 = DIRECTION ( 'NONE',  ( 1.000000000000000000, 0.000000000000000000, -0.000000000000000000 ) ) ;
#72 = ORIENTED_EDGE ( 'NONE', *, *, #113, .T. ) ;
#73 = AXIS2_PLACEMENT_3D ( 'NONE', #184, #62, #303 ) ;
#74 = ORIENTED_EDGE ( 'NONE', *, *, #32, .T. ) ;
#75 = ORIENTED_EDGE ( 'NONE', *, *, #49, .T. ) ;
#76 = EDGE_LOOP ( 'NONE', ( #214, #107, #217, #169 ) ) ;
#77 = EDGE_CURVE ( 'NONE', #133, #98, #257, .T. ) ;
#78 = CC_DESIGN_APPROVAL ( #55, ( #285 ) ) ;
#79 = PERSON_AND_ORGANIZATION_ROLE ( 'design_supplier' ) ;
#80 = EDGE_CURVE ( 'NONE', #170, #239, #305, .T. ) ;
#81 = VECTOR ( 'NONE', #116, 1000.000000000000000 ) ;
#82 = CC_DESIGN_SECURITY_CLASSIFICATION ( #189, ( #21 ) ) ;
#83 = APPLICATION_CONTEXT ( 'configuration controlled 3d designs of mechanical parts and assemblies' ) ;
#84 = COORDINATED_UNIVERSAL_TIME_OFFSET ( 1, 0, .AHEAD. ) ;
#85 = APPROVAL ( #249, 'NEURÈENÝ' ) ;
#86 = CARTESIAN_POINT ( 'NONE',  ( 4.000000000000000000, 4.898587196589412829E-16, 3.000000000000000000 ) ) ;
#87 = DIRECTION ( 'NONE',  ( 0.000000000000000000, 0.000000000000000000, 1.000000000000000000 ) ) ;
#88 = PRODUCT_RELATED_PRODUCT_CATEGORY ( 'detail', '', ( #95 ) ) ;
#89 = TOROIDAL_SURFACE ( 'NONE', #15, 2.449999999999999734, 0.2000000000000000111 ) ;
#90 = DIRECTION ( 'NONE',  ( -0.000000000000000000, -0.000000000000000000, -1.000000000000000000 ) ) ;
#91 = PERSON_AND_ORGANIZATION ( #227, #174 ) ;
#92 = FACE_OUTER_BOUND ( 'NONE', #193, .T. ) ;
#93 = CARTESIAN_POINT ( 'NONE',  ( 4.000000000000000000, 4.898587196589412829E-16, 3.000000000000000000 ) ) ;
#94 = AXIS2_PLACEMENT_3D ( 'NONE', #22, #238, #212 ) ;
#95 = PRODUCT ( 'ed77', 'ed77', '', ( #278 ) ) ;
#96 = DIRECTION ( 'NONE',  ( 1.000000000000000000, 0.000000000000000000, 0.000000000000000000 ) ) ;
#97 = AXIS2_PLACEMENT_3D ( 'NONE', #45, #161, #209 ) ;
#98 = VERTEX_POINT ( 'NONE', #36 ) ;
#99 = DIRECTION ( 'NONE',  ( 0.000000000000000000, 0.000000000000000000, 1.000000000000000000 ) ) ;
#100 = EDGE_LOOP ( 'NONE', ( #1, #196, #192, #286 ) ) ;
#101 = CARTESIAN_POINT ( 'NONE',  ( 2.449999999999999734, 0.000000000000000000, 3.200000000000008171 ) ) ;
#102 = APPLICATION_CONTEXT ( 'configuration controlled 3d designs of mechanical parts and assemblies' ) ;
#103 = EDGE_LOOP ( 'NONE', ( #7, #246, #2, #245 ) ) ;
#104 = EDGE_LOOP ( 'NONE', ( #26, #264 ) ) ;
#105 = VECTOR ( 'NONE', #235, 1000.000000000000000 ) ;
#106 = CALENDAR_DATE ( 2022, 7, 7 ) ;
#107 = ORIENTED_EDGE ( 'NONE', *, *, #126, .F. ) ;
#108 = APPROVAL_ROLE ( '' ) ;
#109 = EDGE_CURVE ( 'NONE', #133, #170, #6, .T. ) ;
#110 = CALENDAR_DATE ( 2022, 7, 7 ) ;
#111 = CIRCLE ( 'NONE', #94, 2.250000000000000000 ) ;
#112 = DATE_AND_TIME ( #106, #120 ) ;
#113 = EDGE_CURVE ( 'NONE', #135, #48, #247, .T. ) ;
#114 = DIRECTION ( 'NONE',  ( -1.000000000000000000, 0.000000000000000000, 0.000000000000000000 ) ) ;
#115 = DIRECTION ( 'NONE',  ( -0.000000000000000000, -0.000000000000000000, -1.000000000000000000 ) ) ;
#116 = DIRECTION ( 'NONE',  ( -0.000000000000000000, -0.000000000000000000, -1.000000000000000000 ) ) ;
#117 = CARTESIAN_POINT ( 'NONE',  ( 2.250000000000000000, 2.755455298081544285E-16, 163.0000000000000000 ) ) ;
#118 = CARTESIAN_POINT ( 'NONE',  ( -4.000000000000000000, 0.000000000000000000, 0.000000000000000000 ) ) ;
#119 = CARTESIAN_POINT ( 'NONE',  ( -4.000000000000000000, 0.000000000000000000, 3.000000000000000000 ) ) ;
#120 = LOCAL_TIME ( 14, 48, 13.00000000000000000, #202 ) ;
#121 = DIRECTION ( 'NONE',  ( -1.000000000000000000, 1.224646799147353207E-16, 0.000000000000000000 ) ) ;
#122 = DIRECTION ( 'NONE',  ( 0.000000000000000000, 0.000000000000000000, 1.000000000000000000 ) ) ;
#123 = AXIS2_PLACEMENT_3D ( 'NONE', #101, #173, #260 ) ;
#124 = VERTEX_POINT ( 'NONE', #255 ) ;
#125 = AXIS2_PLACEMENT_3D ( 'NONE', #280, #143, #114 ) ;
#126 = EDGE_CURVE ( 'NONE', #170, #133, #225, .T. ) ;
#127 = ORIENTED_EDGE ( 'NONE', *, *, #77, .T. ) ;
#128 = ORIENTED_EDGE ( 'NONE', *, *, #248, .F. ) ;
#129 = PLANE ( 'NONE',  #197 ) ;
#130 = UNCERTAINTY_MEASURE_WITH_UNIT (LENGTH_MEASURE( 1.000000000000000082E-05 ), #158, 'distance_accuracy_value', 'NONE');
#131 = ORIENTED_EDGE ( 'NONE', *, *, #19, .T. ) ;
#132 = COORDINATED_UNIVERSAL_TIME_OFFSET ( 1, 0, .AHEAD. ) ;
#133 = VERTEX_POINT ( 'NONE', #86 ) ;
#134 = DATE_AND_TIME ( #222, #300 ) ;
#135 = VERTEX_POINT ( 'NONE', #141 ) ;
#136 = PERSON_AND_ORGANIZATION_ROLE ( 'creator' ) ;
#137 = APPROVAL_ROLE ( '' ) ;
#138 = PERSON_AND_ORGANIZATION ( #227, #174 ) ;
#139 = ADVANCED_FACE ( 'NONE', ( #297 ), #145, .T. ) ;
#140 = DIRECTION ( 'NONE',  ( 1.000000000000000000, 0.000000000000000000, 0.000000000000000000 ) ) ;
#141 = CARTESIAN_POINT ( 'NONE',  ( 2.449999999999999734, 0.000000000000000000, 3.000000000000004441 ) ) ;
#142 = CARTESIAN_POINT ( 'NONE',  ( 2.250000000000000000, 2.755455298081544285E-16, 3.200000000000008171 ) ) ;
#143 = DIRECTION ( 'NONE',  ( -0.000000000000000000, -0.000000000000000000, -1.000000000000000000 ) ) ;
#144 = FACE_OUTER_BOUND ( 'NONE', #30, .T. ) ;
#145 = PLANE ( 'NONE',  #171 ) ;
#146 = CARTESIAN_POINT ( 'NONE',  ( -2.449999999999999734, 3.000384657911015370E-16, 3.200000000000008171 ) ) ;
#147 = ADVANCED_FACE ( 'NONE', ( #92 ), #89, .F. ) ;
#148 = DIRECTION ( 'NONE',  ( 0.000000000000000000, 0.000000000000000000, 1.000000000000000000 ) ) ;
#149 = VERTEX_POINT ( 'NONE', #162 ) ;
#150 = MANIFOLD_SOLID_BREP ( 'Zaoblit1', #295 ) ;
#151 = DIRECTION ( 'NONE',  ( 1.000000000000000000, 0.000000000000000000, 0.000000000000000000 ) ) ;
#152 = TOROIDAL_SURFACE ( 'NONE', #53, 2.449999999999999734, 0.2000000000000000111 ) ;
#153 = APPROVAL_DATE_TIME ( #112, #200 ) ;
#154 = VERTEX_POINT ( 'NONE', #142 ) ;
#155 = PERSON_AND_ORGANIZATION ( #227, #174 ) ;
#156 = ADVANCED_FACE ( 'NONE', ( #284 ), #152, .F. ) ;
#157 = AXIS2_PLACEMENT_3D ( 'NONE', #69, #43, #18 ) ;
#158 =( LENGTH_UNIT ( ) NAMED_UNIT ( * ) SI_UNIT ( .MILLI., .METRE. ) );
#159 = CC_DESIGN_PERSON_AND_ORGANIZATION_ASSIGNMENT ( #155, #11, ( #189 ) ) ;
#160 = LOCAL_TIME ( 14, 48, 13.00000000000000000, #84 ) ;
#161 = DIRECTION ( 'NONE',  ( 0.000000000000000000, 0.000000000000000000, 1.000000000000000000 ) ) ;
#162 = CARTESIAN_POINT ( 'NONE',  ( -2.250000000000000000, 0.000000000000000000, 3.200000000000008171 ) ) ;
#163 = EDGE_CURVE ( 'NONE', #124, #154, #276, .T. ) ;
#164 = LINE ( 'NONE', #60, #81 ) ;
#165 = CYLINDRICAL_SURFACE ( 'NONE', #228, 2.250000000000000000 ) ;
#166 = CYLINDRICAL_SURFACE ( 'NONE', #73, 4.000000000000000000 ) ;
#167 = CC_DESIGN_PERSON_AND_ORGANIZATION_ASSIGNMENT ( #231, #206, ( #95 ) ) ;
#168 = CARTESIAN_POINT ( 'NONE',  ( 0.000000000000000000, 0.000000000000000000, 163.0000000000000000 ) ) ;
#169 = ORIENTED_EDGE ( 'NONE', *, *, #8, .T. ) ;
#170 = VERTEX_POINT ( 'NONE', #119 ) ;
#171 = AXIS2_PLACEMENT_3D ( 'NONE', #186, #236, #279 ) ;
#172 = ORIENTED_EDGE ( 'NONE', *, *, #218, .T. ) ;
#173 = DIRECTION ( 'NONE',  ( 0.000000000000000000, -1.000000000000000000, 0.000000000000000000 ) ) ;
#174 = ORGANIZATION ( 'NEURÈENÝ', 'NEURÈENÝ', '' ) ;
#175 = APPROVAL_PERSON_ORGANIZATION ( #220, #200, #108 ) ;
#176 = ADVANCED_FACE ( 'NONE', ( #205 ), #166, .T. ) ;
#177 = ADVANCED_FACE ( 'NONE', ( #258 ), #165, .T. ) ;
#178 = AXIS2_PLACEMENT_3D ( 'NONE', #273, #254, #65 ) ;
#179 = CC_DESIGN_PERSON_AND_ORGANIZATION_ASSIGNMENT ( #28, #79, ( #21 ) ) ;
#180 = CARTESIAN_POINT ( 'NONE',  ( 0.000000000000000000, 0.000000000000000000, 3.000000000000000000 ) ) ;
#181 = DIRECTION ( 'NONE',  ( 1.000000000000000000, 0.000000000000000000, 0.000000000000000000 ) ) ;
#182 = AXIS2_PLACEMENT_3D ( 'NONE', #146, #203, #121 ) ;
#183 = DIRECTION ( 'NONE',  ( 1.000000000000000000, 0.000000000000000000, 0.000000000000000000 ) ) ;
#184 = CARTESIAN_POINT ( 'NONE',  ( 0.000000000000000000, 0.000000000000000000, 3.000000000000000000 ) ) ;
#185 = APPROVAL_STATUS ( 'not_yet_approved' ) ;
#186 = CARTESIAN_POINT ( 'NONE',  ( 0.000000000000000000, 0.000000000000000000, 163.0000000000000000 ) ) ;
#187 = CIRCLE ( 'NONE', #39, 4.000000000000000000 ) ;
#188 = DIRECTION ( 'NONE',  ( -0.000000000000000000, -0.000000000000000000, -1.000000000000000000 ) ) ;
#189 = SECURITY_CLASSIFICATION ( '', '', #10 ) ;
#190 = DIRECTION ( 'NONE',  ( 0.000000000000000000, 0.000000000000000000, 1.000000000000000000 ) ) ;
#191 = EDGE_LOOP ( 'NONE', ( #72, #4 ) ) ;
#192 = ORIENTED_EDGE ( 'NONE', *, *, #113, .F. ) ;
#193 = EDGE_LOOP ( 'NONE', ( #240, #263, #131, #128 ) ) ;
#194 = CIRCLE ( 'NONE', #97, 4.000000000000000000 ) ;
#195 = CARTESIAN_POINT ( 'NONE',  ( 0.000000000000000000, 0.000000000000000000, 0.000000000000000000 ) ) ;
#196 = ORIENTED_EDGE ( 'NONE', *, *, #234, .T. ) ;
#197 = AXIS2_PLACEMENT_3D ( 'NONE', #3, #148, #71 ) ;
#198 = EDGE_LOOP ( 'NONE', ( #262, #127, #172, #27 ) ) ;
#199 = APPROVAL_PERSON_ORGANIZATION ( #219, #85, #269 ) ;
#200 = APPROVAL ( #58, 'NEURÈENÝ' ) ;
#201 = ORIENTED_EDGE ( 'NONE', *, *, #289, .F. ) ;
#202 = COORDINATED_UNIVERSAL_TIME_OFFSET ( 1, 0, .AHEAD. ) ;
#203 = DIRECTION ( 'NONE',  ( 1.224646799147353207E-16, 1.000000000000000000, -0.000000000000000000 ) ) ;
#204 = DIRECTION ( 'NONE',  ( -0.000000000000000000, -0.000000000000000000, -1.000000000000000000 ) ) ;
#205 = FACE_OUTER_BOUND ( 'NONE', #76, .T. ) ;
#206 = PERSON_AND_ORGANIZATION_ROLE ( 'design_owner' ) ;
#207 = LOCAL_TIME ( 14, 48, 13.00000000000000000, #221 ) ;
#208 = CYLINDRICAL_SURFACE ( 'NONE', #52, 2.250000000000000000 ) ;
#209 = DIRECTION ( 'NONE',  ( 1.000000000000000000, 0.000000000000000000, 0.000000000000000000 ) ) ;
#210 = CARTESIAN_POINT ( 'NONE',  ( 0.000000000000000000, 0.000000000000000000, 3.000000000000000000 ) ) ;
#211 = APPROVAL_PERSON_ORGANIZATION ( #91, #55, #137 ) ;
#212 = DIRECTION ( 'NONE',  ( 1.000000000000000000, 0.000000000000000000, 0.000000000000000000 ) ) ;
#213 = DIRECTION ( 'NONE',  ( 0.000000000000000000, 0.000000000000000000, 1.000000000000000000 ) ) ;
#214 = ORIENTED_EDGE ( 'NONE', *, *, #77, .F. ) ;
#215 = ORIENTED_EDGE ( 'NONE', *, *, #302, .F. ) ;
#216 = CIRCLE ( 'NONE', #178, 2.250000000000000000 ) ;
#217 = ORIENTED_EDGE ( 'NONE', *, *, #80, .T. ) ;
#218 = EDGE_CURVE ( 'NONE', #98, #239, #194, .T. ) ;
#219 = PERSON_AND_ORGANIZATION ( #227, #174 ) ;
#220 = PERSON_AND_ORGANIZATION ( #227, #174 ) ;
#221 = COORDINATED_UNIVERSAL_TIME_OFFSET ( 1, 0, .AHEAD. ) ;
#222 = CALENDAR_DATE ( 2022, 7, 7 ) ;
#223 = ADVANCED_FACE ( 'NONE', ( #144 ), #237, .F. ) ;
#224 = VECTOR ( 'NONE', #90, 1000.000000000000000 ) ;
#225 = CIRCLE ( 'NONE', #35, 4.000000000000000000 ) ;
#226 = APPROVAL_DATE_TIME ( #294, #85 ) ;
#227 = PERSON ( 'NEURÈENÝ', 'NEURÈENÝ', 'NEURÈENÝ', ('NEURÈENÝ'), ('NEURÈENÝ'), ('NEURÈENÝ') ) ;
#228 = AXIS2_PLACEMENT_3D ( 'NONE', #41, #281, #66 ) ;
#229 = CARTESIAN_POINT ( 'NONE',  ( -2.250000000000000000, 0.000000000000000000, 163.0000000000000000 ) ) ;
#230 = DIRECTION ( 'NONE',  ( 1.000000000000000000, 0.000000000000000000, 0.000000000000000000 ) ) ;
#231 = PERSON_AND_ORGANIZATION ( #227, #174 ) ;
#232 = DIRECTION ( 'NONE',  ( 0.000000000000000000, 0.000000000000000000, 1.000000000000000000 ) ) ;
#233 = CC_DESIGN_APPROVAL ( #200, ( #189 ) ) ;
#234 = EDGE_CURVE ( 'NONE', #149, #48, #243, .T. ) ;
#235 = DIRECTION ( 'NONE',  ( -0.000000000000000000, -0.000000000000000000, -1.000000000000000000 ) ) ;
#236 = DIRECTION ( 'NONE',  ( 0.000000000000000000, 0.000000000000000000, 1.000000000000000000 ) ) ;
#237 = PLANE ( 'NONE',  #157 ) ;
#238 = DIRECTION ( 'NONE',  ( 0.000000000000000000, 0.000000000000000000, 1.000000000000000000 ) ) ;
#239 = VERTEX_POINT ( 'NONE', #118 ) ;
#240 = ORIENTED_EDGE ( 'NONE', *, *, #234, .F. ) ;
#241 = AXIS2_PLACEMENT_3D ( 'NONE', #20, #99, #151 ) ;
#242 = ORIENTED_EDGE ( 'NONE', *, *, #8, .F. ) ;
#243 = CIRCLE ( 'NONE', #182, 0.2000000000000000944 ) ;
#244 = ADVANCED_FACE ( 'NONE', ( #63 ), #252, .T. ) ;
#245 = ORIENTED_EDGE ( 'NONE', *, *, #272, .T. ) ;
#246 = ORIENTED_EDGE ( 'NONE', *, *, #49, .F. ) ;
#247 = CIRCLE ( 'NONE', #56, 2.449999999999999734 ) ;
#248 = EDGE_CURVE ( 'NONE', #48, #135, #283, .T. ) ;
#249 = APPROVAL_STATUS ( 'not_yet_approved' ) ;
#250 = CALENDAR_DATE ( 2022, 7, 7 ) ;
#251 = CC_DESIGN_DATE_AND_TIME_ASSIGNMENT ( #9, #268, ( #285 ) ) ;
#252 = CYLINDRICAL_SURFACE ( 'NONE', #125, 4.000000000000000000 ) ;
#253 = DIRECTION ( 'NONE',  ( 1.000000000000000000, 0.000000000000000000, 0.000000000000000000 ) ) ;
#254 = DIRECTION ( 'NONE',  ( 0.000000000000000000, 0.000000000000000000, 1.000000000000000000 ) ) ;
#255 = CARTESIAN_POINT ( 'NONE',  ( 2.250000000000000000, 2.755455298081544285E-16, 163.0000000000000000 ) ) ;
#256 =( NAMED_UNIT ( * ) PLANE_ANGLE_UNIT ( ) SI_UNIT ( $, .RADIAN. ) );
#257 = LINE ( 'NONE', #93, #224 ) ;
#258 = FACE_OUTER_BOUND ( 'NONE', #51, .T. ) ;
#259 = DIRECTION ( 'NONE',  ( 0.000000000000000000, 0.000000000000000000, 1.000000000000000000 ) ) ;
#260 = DIRECTION ( 'NONE',  ( 0.000000000000000000, 0.000000000000000000, -1.000000000000000000 ) ) ;
#261 = AXIS2_PLACEMENT_3D ( 'NONE', #12, #87, #183 ) ;
#262 = ORIENTED_EDGE ( 'NONE', *, *, #109, .F. ) ;
#263 = ORIENTED_EDGE ( 'NONE', *, *, #32, .F. ) ;
#264 = ORIENTED_EDGE ( 'NONE', *, *, #109, .T. ) ;
#265 = ORIENTED_EDGE ( 'NONE', *, *, #289, .T. ) ;
#266 = VERTEX_POINT ( 'NONE', #229 ) ;
#267 = DATE_TIME_ROLE ( 'classification_date' ) ;
#268 = DATE_TIME_ROLE ( 'creation_date' ) ;
#269 = APPROVAL_ROLE ( '' ) ;
#270 = AXIS2_PLACEMENT_3D ( 'NONE', #180, #204, #140 ) ;
#271 = DATE_AND_TIME ( #110, #207 ) ;
#272 = EDGE_CURVE ( 'NONE', #149, #154, #216, .T. ) ;
#273 = CARTESIAN_POINT ( 'NONE',  ( 0.000000000000000000, 0.000000000000000000, 3.200000000000008171 ) ) ;
#274 = AXIS2_PLACEMENT_3D ( 'NONE', #210, #259, #13 ) ;
#275 = DIRECTION ( 'NONE',  ( 1.000000000000000000, 0.000000000000000000, 0.000000000000000000 ) ) ;
#276 = LINE ( 'NONE', #117, #68 ) ;
#277 = CIRCLE ( 'NONE', #42, 2.250000000000000000 ) ;
#278 = MECHANICAL_CONTEXT ( 'NONE', #83, 'mechanical' ) ;
#279 = DIRECTION ( 'NONE',  ( 1.000000000000000000, 0.000000000000000000, -0.000000000000000000 ) ) ;
#280 = CARTESIAN_POINT ( 'NONE',  ( 0.000000000000000000, 0.000000000000000000, 3.000000000000000000 ) ) ;
#281 = DIRECTION ( 'NONE',  ( -0.000000000000000000, -0.000000000000000000, -1.000000000000000000 ) ) ;
#282 = CARTESIAN_POINT ( 'NONE',  ( 0.000000000000000000, 0.000000000000000000, 3.000000000000000000 ) ) ;
#283 = CIRCLE ( 'NONE', #270, 2.449999999999999734 ) ;
#284 = FACE_OUTER_BOUND ( 'NONE', #100, .T. ) ;
#285 = PRODUCT_DEFINITION ( 'NEZNÁMÝ', '', #21, #290 ) ;
#286 = ORIENTED_EDGE ( 'NONE', *, *, #19, .F. ) ;
#287 = ORIENTED_EDGE ( 'NONE', *, *, #218, .F. ) ;
#288 = ORIENTED_EDGE ( 'NONE', *, *, #163, .T. ) ;
#289 = EDGE_CURVE ( 'NONE', #124, #266, #277, .T. ) ;
#290 = DESIGN_CONTEXT ( 'detailed design', #102, 'design' ) ;
#291 = CARTESIAN_POINT ( 'NONE',  ( -2.449999999999999734, 3.000384657911015370E-16, 3.000000000000004441 ) ) ;
#292 = CIRCLE ( 'NONE', #241, 2.250000000000000000 ) ;
#293 = APPROVAL_DATE_TIME ( #134, #55 ) ;
#294 = DATE_AND_TIME ( #34, #61 ) ;
#295 = CLOSED_SHELL ( 'NONE', ( #156, #177, #244, #176, #37, #223, #57, #139, #147 ) ) ;
#296 = COORDINATED_UNIVERSAL_TIME_OFFSET ( 1, 0, .AHEAD. ) ;
#297 = FACE_OUTER_BOUND ( 'NONE', #23, .T. ) ;
#298 = APPLICATION_PROTOCOL_DEFINITION ( 'international standard', 'config_control_design', 1994, #83 ) ;
#299 = DIRECTION ( 'NONE',  ( -1.000000000000000000, 0.000000000000000000, 0.000000000000000000 ) ) ;
#300 = LOCAL_TIME ( 14, 48, 13.00000000000000000, #132 ) ;
#301 = APPLICATION_PROTOCOL_DEFINITION ( 'international standard', 'config_control_design', 1994, #102 ) ;
#302 = EDGE_CURVE ( 'NONE', #266, #149, #164, .T. ) ;
#303 = DIRECTION ( 'NONE',  ( -1.000000000000000000, 0.000000000000000000, 0.000000000000000000 ) ) ;
#304 = CARTESIAN_POINT ( 'NONE',  ( 0.000000000000000000, 0.000000000000000000, 3.200000000000008171 ) ) ;
#305 = LINE ( 'NONE', #17, #105 ) ;
#306 = CC_DESIGN_PERSON_AND_ORGANIZATION_ASSIGNMENT ( #31, #136, ( #285 ) ) ;
#307 = FACE_OUTER_BOUND ( 'NONE', #104, .T. ) ;
ENDSEC;
END-ISO-10303-21;
