ISO-10303-21;
HEADER;
FILE_DESCRIPTION (( 'STEP AP203' ),
    '1' );
FILE_NAME ('97c2.STEP',
    '2022-06-30T20:26:26',
    ( '' ),
    ( '' ),
    'SwSTEP 2.0',
    'SolidWorks 2019',
    '' );
FILE_SCHEMA (( 'CONFIG_CONTROL_DESIGN' ));
ENDSEC;

DATA;
#1 = PRODUCT_DEFINITION_SHAPE ( 'NONE', 'NONE',  #222 ) ;
#2 = EDGE_CURVE ( 'NONE', #106, #209, #127, .T. ) ;
#3 = APPLICATION_CONTEXT ( 'configuration controlled 3d designs of mechanical parts and assemblies' ) ;
#4 = CARTESIAN_POINT ( 'NONE',  ( 1.000000000000000000, 1.224646799147353207E-16, 102.0000000000000142 ) ) ;
#5 = AXIS2_PLACEMENT_3D ( 'NONE', #110, #192, #233 ) ;
#6 = APPROVAL_STATUS ( 'not_yet_approved' ) ;
#7 = CALENDAR_DATE ( 2022, 30, 6 ) ;
#8 = ORIENTED_EDGE ( 'NONE', *, *, #40, .F. ) ;
#9 = CALENDAR_DATE ( 2022, 30, 6 ) ;
#10 = APPLICATION_PROTOCOL_DEFINITION ( 'international standard', 'config_control_design', 1994, #3 ) ;
#11 = APPROVAL_DATE_TIME ( #51, #24 ) ;
#12 = VERTEX_POINT ( 'NONE', #19 ) ;
#13 = ORIENTED_EDGE ( 'NONE', *, *, #77, .F. ) ;
#14 = CARTESIAN_POINT ( 'NONE',  ( -2.000000000000000000, 0.000000000000000000, 0.000000000000000000 ) ) ;
#15 = CC_DESIGN_PERSON_AND_ORGANIZATION_ASSIGNMENT ( #118, #183, ( #250 ) ) ;
#16 = ORIENTED_EDGE ( 'NONE', *, *, #2, .T. ) ;
#17 = CC_DESIGN_APPROVAL ( #174, ( #250 ) ) ;
#18 = DIRECTION ( 'NONE',  ( -1.000000000000000000, 0.000000000000000000, 0.000000000000000000 ) ) ;
#19 = CARTESIAN_POINT ( 'NONE',  ( 2.000000000000000000, 2.449293598294706414E-16, 0.000000000000000000 ) ) ;
#20 = CARTESIAN_POINT ( 'NONE',  ( 0.000000000000000000, 0.000000000000000000, 2.000000000000000000 ) ) ;
#21 = CYLINDRICAL_SURFACE ( 'NONE', #133, 1.000000000000000000 ) ;
#22 = EDGE_CURVE ( 'NONE', #178, #12, #124, .T. ) ;
#23 = DIRECTION ( 'NONE',  ( 1.000000000000000000, 0.000000000000000000, 0.000000000000000000 ) ) ;
#24 = APPROVAL ( #241, 'NEURÈENÝ' ) ;
#25 = CARTESIAN_POINT ( 'NONE',  ( -1.000000000000000000, 0.000000000000000000, 102.0000000000000142 ) ) ;
#26 = LOCAL_TIME ( 22, 26, 26.00000000000000000, #223 ) ;
#27 = PERSON_AND_ORGANIZATION ( #105, #186 ) ;
#28 = ORIENTED_EDGE ( 'NONE', *, *, #204, .F. ) ;
#29 = DATE_AND_TIME ( #203, #76 ) ;
#30 = CALENDAR_DATE ( 2022, 30, 6 ) ;
#31 = AXIS2_PLACEMENT_3D ( 'NONE', #108, #60, #94 ) ;
#32 = ADVANCED_FACE ( 'NONE', ( #36 ), #189, .T. ) ;
#33 = APPROVAL_ROLE ( '' ) ;
#34 = APPLICATION_CONTEXT ( 'configuration controlled 3d designs of mechanical parts and assemblies' ) ;
#35 = EDGE_CURVE ( 'NONE', #149, #229, #254, .T. ) ;
#36 = FACE_OUTER_BOUND ( 'NONE', #126, .T. ) ;
#37 = LOCAL_TIME ( 22, 26, 26.00000000000000000, #91 ) ;
#38 = ORIENTED_EDGE ( 'NONE', *, *, #204, .T. ) ;
#39 = ORIENTED_EDGE ( 'NONE', *, *, #22, .T. ) ;
#40 = EDGE_CURVE ( 'NONE', #57, #12, #75, .T. ) ;
#41 = CIRCLE ( 'NONE', #176, 2.000000000000000000 ) ;
#42 = ORIENTED_EDGE ( 'NONE', *, *, #199, .T. ) ;
#43 = DIRECTION ( 'NONE',  ( -0.000000000000000000, -0.000000000000000000, -1.000000000000000000 ) ) ;
#44 = ADVANCED_BREP_SHAPE_REPRESENTATION ( '97c2', ( #180, #81 ), #153 ) ;
#45 = CARTESIAN_POINT ( 'NONE',  ( 0.000000000000000000, 0.000000000000000000, 0.000000000000000000 ) ) ;
#46 = DIRECTION ( 'NONE',  ( 1.000000000000000000, 0.000000000000000000, -0.000000000000000000 ) ) ;
#47 = CC_DESIGN_DATE_AND_TIME_ASSIGNMENT ( #29, #158, ( #222 ) ) ;
#48 = AXIS2_PLACEMENT_3D ( 'NONE', #95, #249, #18 ) ;
#49 = CARTESIAN_POINT ( 'NONE',  ( -1.000000000000000000, 0.000000000000000000, 102.0000000000000142 ) ) ;
#50 = PERSON_AND_ORGANIZATION ( #105, #186 ) ;
#51 = DATE_AND_TIME ( #30, #122 ) ;
#52 = ORIENTED_EDGE ( 'NONE', *, *, #211, .T. ) ;
#53 = PERSON_AND_ORGANIZATION_ROLE ( 'design_supplier' ) ;
#54 = DIRECTION ( 'NONE',  ( 1.000000000000000000, 0.000000000000000000, 0.000000000000000000 ) ) ;
#55 = AXIS2_PLACEMENT_3D ( 'NONE', #58, #96, #169 ) ;
#56 = APPROVAL_PERSON_ORGANIZATION ( #68, #24, #143 ) ;
#57 = VERTEX_POINT ( 'NONE', #14 ) ;
#58 = CARTESIAN_POINT ( 'NONE',  ( 0.000000000000000000, 0.000000000000000000, 2.000000000000000000 ) ) ;
#59 = AXIS2_PLACEMENT_3D ( 'NONE', #200, #97, #46 ) ;
#60 = DIRECTION ( 'NONE',  ( 0.000000000000000000, 0.000000000000000000, 1.000000000000000000 ) ) ;
#61 = DIRECTION ( 'NONE',  ( 0.000000000000000000, 0.000000000000000000, 1.000000000000000000 ) ) ;
#62 = CARTESIAN_POINT ( 'NONE',  ( -2.000000000000000000, 0.000000000000000000, 2.000000000000000000 ) ) ;
#63 = CARTESIAN_POINT ( 'NONE',  ( 0.000000000000000000, 0.000000000000000000, 2.000000000000000000 ) ) ;
#64 = CARTESIAN_POINT ( 'NONE',  ( 0.000000000000000000, 0.000000000000000000, 2.000000000000000000 ) ) ;
#65 = AXIS2_PLACEMENT_3D ( 'NONE', #152, #173, #255 ) ;
#66 = CARTESIAN_POINT ( 'NONE',  ( 1.000000000000000000, 1.224646799147353207E-16, 2.000000000000000000 ) ) ;
#67 = COORDINATED_UNIVERSAL_TIME_OFFSET ( 1, 0, .AHEAD. ) ;
#68 = PERSON_AND_ORGANIZATION ( #105, #186 ) ;
#69 = APPROVAL_STATUS ( 'not_yet_approved' ) ;
#70 = CIRCLE ( 'NONE', #166, 1.000000000000000000 ) ;
#71 = CC_DESIGN_APPROVAL ( #24, ( #222 ) ) ;
#72 = PLANE ( 'NONE',  #55 ) ;
#73 = CARTESIAN_POINT ( 'NONE',  ( 0.000000000000000000, 0.000000000000000000, 102.0000000000000142 ) ) ;
#74 = CARTESIAN_POINT ( 'NONE',  ( 2.000000000000000000, 2.449293598294706414E-16, 2.000000000000000000 ) ) ;
#75 = CIRCLE ( 'NONE', #172, 2.000000000000000000 ) ;
#76 = LOCAL_TIME ( 22, 26, 26.00000000000000000, #67 ) ;
#77 = EDGE_CURVE ( 'NONE', #229, #149, #228, .T. ) ;
#78 = CARTESIAN_POINT ( 'NONE',  ( 0.000000000000000000, 0.000000000000000000, 102.0000000000000142 ) ) ;
#79 = CYLINDRICAL_SURFACE ( 'NONE', #5, 2.000000000000000000 ) ;
#80 = DIRECTION ( 'NONE',  ( 1.000000000000000000, 0.000000000000000000, 0.000000000000000000 ) ) ;
#81 = AXIS2_PLACEMENT_3D ( 'NONE', #239, #220, #54 ) ;
#82 = LINE ( 'NONE', #49, #90 ) ;
#83 = LINE ( 'NONE', #4, #214 ) ;
#84 =( LENGTH_UNIT ( ) NAMED_UNIT ( * ) SI_UNIT ( .MILLI., .METRE. ) );
#85 = APPROVAL_PERSON_ORGANIZATION ( #104, #174, #240 ) ;
#86 = COORDINATED_UNIVERSAL_TIME_OFFSET ( 1, 0, .AHEAD. ) ;
#87 = ORIENTED_EDGE ( 'NONE', *, *, #147, .T. ) ;
#88 = MECHANICAL_CONTEXT ( 'NONE', #34, 'mechanical' ) ;
#89 = ORIENTED_EDGE ( 'NONE', *, *, #245, .F. ) ;
#90 = VECTOR ( 'NONE', #215, 1000.000000000000000 ) ;
#91 = COORDINATED_UNIVERSAL_TIME_OFFSET ( 1, 0, .AHEAD. ) ;
#92 = DATE_AND_TIME ( #9, #177 ) ;
#93 = VECTOR ( 'NONE', #191, 1000.000000000000000 ) ;
#94 = DIRECTION ( 'NONE',  ( 1.000000000000000000, 0.000000000000000000, 0.000000000000000000 ) ) ;
#95 = CARTESIAN_POINT ( 'NONE',  ( 0.000000000000000000, 0.000000000000000000, 102.0000000000000142 ) ) ;
#96 = DIRECTION ( 'NONE',  ( 0.000000000000000000, 0.000000000000000000, 1.000000000000000000 ) ) ;
#97 = DIRECTION ( 'NONE',  ( 0.000000000000000000, 0.000000000000000000, 1.000000000000000000 ) ) ;
#98 = FACE_OUTER_BOUND ( 'NONE', #146, .T. ) ;
#99 = CARTESIAN_POINT ( 'NONE',  ( 0.000000000000000000, 0.000000000000000000, 102.0000000000000142 ) ) ;
#100 = APPLICATION_PROTOCOL_DEFINITION ( 'international standard', 'config_control_design', 1994, #34 ) ;
#101 = DATE_AND_TIME ( #7, #37 ) ;
#102 = EDGE_LOOP ( 'NONE', ( #202, #210, #132, #226 ) ) ;
#103 = COORDINATED_UNIVERSAL_TIME_OFFSET ( 1, 0, .AHEAD. ) ;
#104 = PERSON_AND_ORGANIZATION ( #105, #186 ) ;
#105 = PERSON ( 'NEURÈENÝ', 'NEURÈENÝ', 'NEURÈENÝ', ('NEURÈENÝ'), ('NEURÈENÝ'), ('NEURÈENÝ') ) ;
#106 = VERTEX_POINT ( 'NONE', #231 ) ;
#107 = EDGE_LOOP ( 'NONE', ( #163, #39, #165, #89 ) ) ;
#108 = CARTESIAN_POINT ( 'NONE',  ( 0.000000000000000000, 0.000000000000000000, 2.000000000000000000 ) ) ;
#109 = FACE_OUTER_BOUND ( 'NONE', #243, .T. ) ;
#110 = CARTESIAN_POINT ( 'NONE',  ( 0.000000000000000000, 0.000000000000000000, 2.000000000000000000 ) ) ;
#111 = DIRECTION ( 'NONE',  ( -0.000000000000000000, -0.000000000000000000, -1.000000000000000000 ) ) ;
#112 = DIRECTION ( 'NONE',  ( -1.000000000000000000, 0.000000000000000000, 0.000000000000000000 ) ) ;
#113 = VECTOR ( 'NONE', #111, 1000.000000000000000 ) ;
#114 = ADVANCED_FACE ( 'NONE', ( #212, #109 ), #72, .T. ) ;
#115 = FACE_OUTER_BOUND ( 'NONE', #107, .T. ) ;
#116 = CARTESIAN_POINT ( 'NONE',  ( 2.000000000000000000, 2.449293598294706414E-16, 2.000000000000000000 ) ) ;
#117 = CIRCLE ( 'NONE', #65, 2.000000000000000000 ) ;
#118 = PERSON_AND_ORGANIZATION ( #105, #186 ) ;
#119 = PERSON_AND_ORGANIZATION ( #105, #186 ) ;
#120 = CALENDAR_DATE ( 2022, 30, 6 ) ;
#121 = SHAPE_DEFINITION_REPRESENTATION ( #1, #44 ) ;
#122 = LOCAL_TIME ( 22, 26, 26.00000000000000000, #86 ) ;
#123 = ADVANCED_FACE ( 'NONE', ( #251 ), #79, .T. ) ;
#124 = LINE ( 'NONE', #74, #93 ) ;
#125 = ADVANCED_FACE ( 'NONE', ( #175 ), #235, .F. ) ;
#126 = EDGE_LOOP ( 'NONE', ( #188, #13, #42, #16 ) ) ;
#127 = CIRCLE ( 'NONE', #31, 1.000000000000000000 ) ;
#128 = CC_DESIGN_PERSON_AND_ORGANIZATION_ASSIGNMENT ( #144, #207, ( #134 ) ) ;
#129 = ORIENTED_EDGE ( 'NONE', *, *, #2, .F. ) ;
#130 = DIRECTION ( 'NONE',  ( 1.000000000000000000, 0.000000000000000000, 0.000000000000000000 ) ) ;
#131 = UNCERTAINTY_MEASURE_WITH_UNIT (LENGTH_MEASURE( 1.000000000000000082E-05 ), #84, 'distance_accuracy_value', 'NONE');
#132 = ORIENTED_EDGE ( 'NONE', *, *, #245, .T. ) ;
#133 = AXIS2_PLACEMENT_3D ( 'NONE', #99, #216, #170 ) ;
#134 = SECURITY_CLASSIFICATION ( '', '', #242 ) ;
#135 = DIRECTION ( 'NONE',  ( 1.000000000000000000, 0.000000000000000000, -0.000000000000000000 ) ) ;
#136 = DIRECTION ( 'NONE',  ( 1.000000000000000000, 0.000000000000000000, 0.000000000000000000 ) ) ;
#137 = CARTESIAN_POINT ( 'NONE',  ( 1.000000000000000000, 1.224646799147353207E-16, 102.0000000000000142 ) ) ;
#138 = ADVANCED_FACE ( 'NONE', ( #115 ), #140, .T. ) ;
#139 = AXIS2_PLACEMENT_3D ( 'NONE', #63, #171, #136 ) ;
#140 = CYLINDRICAL_SURFACE ( 'NONE', #145, 2.000000000000000000 ) ;
#141 = DIRECTION ( 'NONE',  ( -0.000000000000000000, -0.000000000000000000, -1.000000000000000000 ) ) ;
#142 = PERSON_AND_ORGANIZATION_ROLE ( 'creator' ) ;
#143 = APPROVAL_ROLE ( '' ) ;
#144 = PERSON_AND_ORGANIZATION ( #105, #186 ) ;
#145 = AXIS2_PLACEMENT_3D ( 'NONE', #20, #43, #112 ) ;
#146 = EDGE_LOOP ( 'NONE', ( #208, #52, #38, #224 ) ) ;
#147 = EDGE_CURVE ( 'NONE', #213, #178, #219, .T. ) ;
#148 = DIRECTION ( 'NONE',  ( 0.000000000000000000, 0.000000000000000000, 1.000000000000000000 ) ) ;
#149 = VERTEX_POINT ( 'NONE', #137 ) ;
#150 = DIRECTION ( 'NONE',  ( 0.000000000000000000, 0.000000000000000000, 1.000000000000000000 ) ) ;
#151 = ORIENTED_EDGE ( 'NONE', *, *, #35, .T. ) ;
#152 = CARTESIAN_POINT ( 'NONE',  ( 0.000000000000000000, 0.000000000000000000, 2.000000000000000000 ) ) ;
#153 =( GEOMETRIC_REPRESENTATION_CONTEXT ( 3 ) GLOBAL_UNCERTAINTY_ASSIGNED_CONTEXT ( ( #131 ) ) GLOBAL_UNIT_ASSIGNED_CONTEXT ( ( #84, #193, #217 ) ) REPRESENTATION_CONTEXT ( 'NONE', 'WORKASPACE' ) );
#154 = FACE_OUTER_BOUND ( 'NONE', #221, .T. ) ;
#155 = PRODUCT_RELATED_PRODUCT_CATEGORY ( 'detail', '', ( #225 ) ) ;
#156 = CLOSED_SHELL ( 'NONE', ( #162, #138, #123, #114, #125, #32, #168 ) ) ;
#157 = PLANE ( 'NONE',  #196 ) ;
#158 = DATE_TIME_ROLE ( 'creation_date' ) ;
#159 = APPROVAL_DATE_TIME ( #101, #230 ) ;
#160 = DIRECTION ( 'NONE',  ( 1.000000000000000000, 0.000000000000000000, 0.000000000000000000 ) ) ;
#161 = APPROVAL_PERSON_ORGANIZATION ( #27, #230, #33 ) ;
#162 = ADVANCED_FACE ( 'NONE', ( #98 ), #21, .T. ) ;
#163 = ORIENTED_EDGE ( 'NONE', *, *, #238, .F. ) ;
#164 = ORIENTED_EDGE ( 'NONE', *, *, #238, .T. ) ;
#165 = ORIENTED_EDGE ( 'NONE', *, *, #181, .T. ) ;
#166 = AXIS2_PLACEMENT_3D ( 'NONE', #64, #197, #80 ) ;
#167 = DESIGN_CONTEXT ( 'detailed design', #3, 'design' ) ;
#168 = ADVANCED_FACE ( 'NONE', ( #154 ), #157, .T. ) ;
#169 = DIRECTION ( 'NONE',  ( 1.000000000000000000, 0.000000000000000000, -0.000000000000000000 ) ) ;
#170 = DIRECTION ( 'NONE',  ( -1.000000000000000000, 0.000000000000000000, 0.000000000000000000 ) ) ;
#171 = DIRECTION ( 'NONE',  ( 0.000000000000000000, 0.000000000000000000, 1.000000000000000000 ) ) ;
#172 = AXIS2_PLACEMENT_3D ( 'NONE', #232, #148, #227 ) ;
#173 = DIRECTION ( 'NONE',  ( 0.000000000000000000, 0.000000000000000000, 1.000000000000000000 ) ) ;
#174 = APPROVAL ( #6, 'NEURÈENÝ' ) ;
#175 = FACE_OUTER_BOUND ( 'NONE', #246, .T. ) ;
#176 = AXIS2_PLACEMENT_3D ( 'NONE', #45, #253, #23 ) ;
#177 = LOCAL_TIME ( 22, 26, 26.00000000000000000, #103 ) ;
#178 = VERTEX_POINT ( 'NONE', #116 ) ;
#179 = APPROVAL_DATE_TIME ( #92, #174 ) ;
#180 = MANIFOLD_SOLID_BREP ( 'Pøidat vysunutím3', #156 ) ;
#181 = EDGE_CURVE ( 'NONE', #12, #57, #41, .T. ) ;
#182 = AXIS2_PLACEMENT_3D ( 'NONE', #73, #61, #130 ) ;
#183 = PERSON_AND_ORGANIZATION_ROLE ( 'creator' ) ;
#184 = CC_DESIGN_SECURITY_CLASSIFICATION ( #134, ( #250 ) ) ;
#185 = ORIENTED_EDGE ( 'NONE', *, *, #77, .T. ) ;
#186 = ORGANIZATION ( 'NEURÈENÝ', 'NEURÈENÝ', '' ) ;
#187 = ORIENTED_EDGE ( 'NONE', *, *, #181, .F. ) ;
#188 = ORIENTED_EDGE ( 'NONE', *, *, #211, .F. ) ;
#189 = CYLINDRICAL_SURFACE ( 'NONE', #48, 1.000000000000000000 ) ;
#190 = CC_DESIGN_PERSON_AND_ORGANIZATION_ASSIGNMENT ( #218, #237, ( #225 ) ) ;
#191 = DIRECTION ( 'NONE',  ( -0.000000000000000000, -0.000000000000000000, -1.000000000000000000 ) ) ;
#192 = DIRECTION ( 'NONE',  ( -0.000000000000000000, -0.000000000000000000, -1.000000000000000000 ) ) ;
#193 =( NAMED_UNIT ( * ) PLANE_ANGLE_UNIT ( ) SI_UNIT ( $, .RADIAN. ) );
#194 = CARTESIAN_POINT ( 'NONE',  ( -2.000000000000000000, 0.000000000000000000, 2.000000000000000000 ) ) ;
#195 = CC_DESIGN_DATE_AND_TIME_ASSIGNMENT ( #205, #201, ( #134 ) ) ;
#196 = AXIS2_PLACEMENT_3D ( 'NONE', #252, #236, #135 ) ;
#197 = DIRECTION ( 'NONE',  ( 0.000000000000000000, 0.000000000000000000, 1.000000000000000000 ) ) ;
#198 = LINE ( 'NONE', #194, #113 ) ;
#199 = EDGE_CURVE ( 'NONE', #229, #106, #82, .T. ) ;
#200 = CARTESIAN_POINT ( 'NONE',  ( 0.000000000000000000, 0.000000000000000000, 0.000000000000000000 ) ) ;
#201 = DATE_TIME_ROLE ( 'classification_date' ) ;
#202 = ORIENTED_EDGE ( 'NONE', *, *, #22, .F. ) ;
#203 = CALENDAR_DATE ( 2022, 30, 6 ) ;
#204 = EDGE_CURVE ( 'NONE', #209, #106, #70, .T. ) ;
#205 = DATE_AND_TIME ( #120, #26 ) ;
#206 = CC_DESIGN_PERSON_AND_ORGANIZATION_ASSIGNMENT ( #50, #53, ( #250 ) ) ;
#207 = PERSON_AND_ORGANIZATION_ROLE ( 'classification_officer' ) ;
#208 = ORIENTED_EDGE ( 'NONE', *, *, #35, .F. ) ;
#209 = VERTEX_POINT ( 'NONE', #66 ) ;
#210 = ORIENTED_EDGE ( 'NONE', *, *, #147, .F. ) ;
#211 = EDGE_CURVE ( 'NONE', #149, #209, #83, .T. ) ;
#212 = FACE_BOUND ( 'NONE', #244, .T. ) ;
#213 = VERTEX_POINT ( 'NONE', #62 ) ;
#214 = VECTOR ( 'NONE', #141, 1000.000000000000000 ) ;
#215 = DIRECTION ( 'NONE',  ( -0.000000000000000000, -0.000000000000000000, -1.000000000000000000 ) ) ;
#216 = DIRECTION ( 'NONE',  ( -0.000000000000000000, -0.000000000000000000, -1.000000000000000000 ) ) ;
#217 =( NAMED_UNIT ( * ) SI_UNIT ( $, .STERADIAN. ) SOLID_ANGLE_UNIT ( ) );
#218 = PERSON_AND_ORGANIZATION ( #105, #186 ) ;
#219 = CIRCLE ( 'NONE', #139, 2.000000000000000000 ) ;
#220 = DIRECTION ( 'NONE',  ( 0.000000000000000000, 0.000000000000000000, 1.000000000000000000 ) ) ;
#221 = EDGE_LOOP ( 'NONE', ( #185, #151 ) ) ;
#222 = PRODUCT_DEFINITION ( 'NEZNÁMÝ', '', #250, #167 ) ;
#223 = COORDINATED_UNIVERSAL_TIME_OFFSET ( 1, 0, .AHEAD. ) ;
#224 = ORIENTED_EDGE ( 'NONE', *, *, #199, .F. ) ;
#225 = PRODUCT ( '97c2', '97c2', '', ( #88 ) ) ;
#226 = ORIENTED_EDGE ( 'NONE', *, *, #40, .T. ) ;
#227 = DIRECTION ( 'NONE',  ( 1.000000000000000000, 0.000000000000000000, 0.000000000000000000 ) ) ;
#228 = CIRCLE ( 'NONE', #248, 1.000000000000000000 ) ;
#229 = VERTEX_POINT ( 'NONE', #25 ) ;
#230 = APPROVAL ( #69, 'NEURÈENÝ' ) ;
#231 = CARTESIAN_POINT ( 'NONE',  ( -1.000000000000000000, 0.000000000000000000, 2.000000000000000000 ) ) ;
#232 = CARTESIAN_POINT ( 'NONE',  ( 0.000000000000000000, 0.000000000000000000, 0.000000000000000000 ) ) ;
#233 = DIRECTION ( 'NONE',  ( -1.000000000000000000, 0.000000000000000000, 0.000000000000000000 ) ) ;
#234 = CC_DESIGN_APPROVAL ( #230, ( #134 ) ) ;
#235 = PLANE ( 'NONE',  #59 ) ;
#236 = DIRECTION ( 'NONE',  ( 0.000000000000000000, 0.000000000000000000, 1.000000000000000000 ) ) ;
#237 = PERSON_AND_ORGANIZATION_ROLE ( 'design_owner' ) ;
#238 = EDGE_CURVE ( 'NONE', #178, #213, #117, .T. ) ;
#239 = CARTESIAN_POINT ( 'NONE',  ( 0.000000000000000000, 0.000000000000000000, 0.000000000000000000 ) ) ;
#240 = APPROVAL_ROLE ( '' ) ;
#241 = APPROVAL_STATUS ( 'not_yet_approved' ) ;
#242 = SECURITY_CLASSIFICATION_LEVEL ( 'unclassified' ) ;
#243 = EDGE_LOOP ( 'NONE', ( #87, #164 ) ) ;
#244 = EDGE_LOOP ( 'NONE', ( #129, #28 ) ) ;
#245 = EDGE_CURVE ( 'NONE', #213, #57, #198, .T. ) ;
#246 = EDGE_LOOP ( 'NONE', ( #8, #187 ) ) ;
#247 = CC_DESIGN_PERSON_AND_ORGANIZATION_ASSIGNMENT ( #119, #142, ( #222 ) ) ;
#248 = AXIS2_PLACEMENT_3D ( 'NONE', #78, #150, #160 ) ;
#249 = DIRECTION ( 'NONE',  ( -0.000000000000000000, -0.000000000000000000, -1.000000000000000000 ) ) ;
#250 = PRODUCT_DEFINITION_FORMATION_WITH_SPECIFIED_SOURCE ( 'LIBOVOLNÝ', '', #225, .NOT_KNOWN. ) ;
#251 = FACE_OUTER_BOUND ( 'NONE', #102, .T. ) ;
#252 = CARTESIAN_POINT ( 'NONE',  ( 0.000000000000000000, 0.000000000000000000, 102.0000000000000142 ) ) ;
#253 = DIRECTION ( 'NONE',  ( 0.000000000000000000, 0.000000000000000000, 1.000000000000000000 ) ) ;
#254 = CIRCLE ( 'NONE', #182, 1.000000000000000000 ) ;
#255 = DIRECTION ( 'NONE',  ( 1.000000000000000000, 0.000000000000000000, 0.000000000000000000 ) ) ;
ENDSEC;
END-ISO-10303-21;
