ISO-10303-21;
HEADER;
FILE_DESCRIPTION (( 'STEP AP203' ),
    '1' );
FILE_NAME ('2b76.STEP',
    '2023-02-12T12:23:38',
    ( '' ),
    ( '' ),
    'SwSTEP 2.0',
    'SolidWorks 2019',
    '' );
FILE_SCHEMA (( 'CONFIG_CONTROL_DESIGN' ));
ENDSEC;

DATA;
#1 = EDGE_LOOP ( 'NONE', ( #89, #34 ) ) ;
#2 = CIRCLE ( 'NONE', #146, 1.000000000000000000 ) ;
#3 = CC_DESIGN_APPROVAL ( #116, ( #215 ) ) ;
#4 = EDGE_CURVE ( 'NONE', #131, #25, #209, .T. ) ;
#5 = DIRECTION ( 'NONE',  ( 0.000000000000000000, 0.000000000000000000, 1.000000000000000000 ) ) ;
#6 = DIRECTION ( 'NONE',  ( -0.000000000000000000, -0.000000000000000000, -1.000000000000000000 ) ) ;
#7 = ORIENTED_EDGE ( 'NONE', *, *, #119, .F. ) ;
#8 = APPLICATION_PROTOCOL_DEFINITION ( 'international standard', 'config_control_design', 1994, #15 ) ;
#9 = ORIENTED_EDGE ( 'NONE', *, *, #70, .F. ) ;
#10 =( NAMED_UNIT ( * ) SI_UNIT ( $, .STERADIAN. ) SOLID_ANGLE_UNIT ( ) );
#11 = CARTESIAN_POINT ( 'NONE',  ( 0.000000000000000000, 0.000000000000000000, 2.000000000000000000 ) ) ;
#12 = CARTESIAN_POINT ( 'NONE',  ( 2.000000000000000000, 2.449293598294706414E-16, 0.000000000000000000 ) ) ;
#13 = PERSON_AND_ORGANIZATION ( #180, #121 ) ;
#14 = PRODUCT_RELATED_PRODUCT_CATEGORY ( 'detail', '', ( #104 ) ) ;
#15 = APPLICATION_CONTEXT ( 'configuration controlled 3d designs of mechanical parts and assemblies' ) ;
#16 = MECHANICAL_CONTEXT ( 'NONE', #15, 'mechanical' ) ;
#17 = DIRECTION ( 'NONE',  ( 1.000000000000000000, 0.000000000000000000, 0.000000000000000000 ) ) ;
#18 = APPROVAL ( #110, 'NEURÈENÝ' ) ;
#19 = COORDINATED_UNIVERSAL_TIME_OFFSET ( 1, 0, .AHEAD. ) ;
#20 = APPROVAL_PERSON_ORGANIZATION ( #36, #116, #234 ) ;
#21 = CARTESIAN_POINT ( 'NONE',  ( 0.000000000000000000, 0.000000000000000000, 2.000000000000000000 ) ) ;
#22 = ORIENTED_EDGE ( 'NONE', *, *, #51, .F. ) ;
#23 = CARTESIAN_POINT ( 'NONE',  ( -2.000000000000000000, 0.000000000000000000, 0.000000000000000000 ) ) ;
#24 = ADVANCED_FACE ( 'NONE', ( #190 ), #245, .T. ) ;
#25 = VERTEX_POINT ( 'NONE', #12 ) ;
#26 = CARTESIAN_POINT ( 'NONE',  ( 0.000000000000000000, 0.000000000000000000, 2.000000000000000000 ) ) ;
#27 = DIRECTION ( 'NONE',  ( -1.000000000000000000, 0.000000000000000000, 0.000000000000000000 ) ) ;
#28 = EDGE_LOOP ( 'NONE', ( #9, #22 ) ) ;
#29 = VECTOR ( 'NONE', #163, 1000.000000000000000 ) ;
#30 = LOCAL_TIME ( 13, 23, 38.00000000000000000, #19 ) ;
#31 = APPROVAL ( #229, 'NEURÈENÝ' ) ;
#32 = DIRECTION ( 'NONE',  ( -1.000000000000000000, 0.000000000000000000, 0.000000000000000000 ) ) ;
#33 = VECTOR ( 'NONE', #176, 1000.000000000000000 ) ;
#34 = ORIENTED_EDGE ( 'NONE', *, *, #186, .T. ) ;
#35 = UNCERTAINTY_MEASURE_WITH_UNIT (LENGTH_MEASURE( 1.000000000000000082E-05 ), #224, 'distance_accuracy_value', 'NONE');
#36 = PERSON_AND_ORGANIZATION ( #180, #121 ) ;
#37 = PERSON_AND_ORGANIZATION ( #180, #121 ) ;
#38 = FACE_OUTER_BOUND ( 'NONE', #253, .T. ) ;
#39 = CC_DESIGN_PERSON_AND_ORGANIZATION_ASSIGNMENT ( #40, #58, ( #215 ) ) ;
#40 = PERSON_AND_ORGANIZATION ( #180, #121 ) ;
#41 = CARTESIAN_POINT ( 'NONE',  ( 0.000000000000000000, 0.000000000000000000, 160.0000000000000000 ) ) ;
#42 = VERTEX_POINT ( 'NONE', #191 ) ;
#43 = DIRECTION ( 'NONE',  ( 1.000000000000000000, 0.000000000000000000, 0.000000000000000000 ) ) ;
#44 = DIRECTION ( 'NONE',  ( 1.000000000000000000, 0.000000000000000000, -0.000000000000000000 ) ) ;
#45 = CARTESIAN_POINT ( 'NONE',  ( 0.000000000000000000, 0.000000000000000000, 2.000000000000000000 ) ) ;
#46 = AXIS2_PLACEMENT_3D ( 'NONE', #26, #220, #181 ) ;
#47 = DIRECTION ( 'NONE',  ( 0.000000000000000000, 0.000000000000000000, 1.000000000000000000 ) ) ;
#48 = FACE_OUTER_BOUND ( 'NONE', #206, .T. ) ;
#49 = DIRECTION ( 'NONE',  ( -1.000000000000000000, 0.000000000000000000, 0.000000000000000000 ) ) ;
#50 = APPROVAL_PERSON_ORGANIZATION ( #231, #31, #175 ) ;
#51 = EDGE_CURVE ( 'NONE', #75, #177, #178, .T. ) ;
#52 = DIRECTION ( 'NONE',  ( 0.000000000000000000, 0.000000000000000000, 1.000000000000000000 ) ) ;
#53 = CARTESIAN_POINT ( 'NONE',  ( 0.000000000000000000, 0.000000000000000000, 0.000000000000000000 ) ) ;
#54 = AXIS2_PLACEMENT_3D ( 'NONE', #21, #113, #43 ) ;
#55 = ORIENTED_EDGE ( 'NONE', *, *, #74, .T. ) ;
#56 = SHAPE_DEFINITION_REPRESENTATION ( #226, #67 ) ;
#57 = COORDINATED_UNIVERSAL_TIME_OFFSET ( 1, 0, .AHEAD. ) ;
#58 = PERSON_AND_ORGANIZATION_ROLE ( 'classification_officer' ) ;
#59 = CARTESIAN_POINT ( 'NONE',  ( 0.000000000000000000, 0.000000000000000000, 2.000000000000000000 ) ) ;
#60 = DATE_AND_TIME ( #138, #96 ) ;
#61 = EDGE_CURVE ( 'NONE', #103, #177, #169, .T. ) ;
#62 = CARTESIAN_POINT ( 'NONE',  ( 1.000000000000000000, 1.224646799147353207E-16, 2.000000000000000000 ) ) ;
#63 = PERSON_AND_ORGANIZATION_ROLE ( 'creator' ) ;
#64 = LINE ( 'NONE', #81, #223 ) ;
#65 = ORIENTED_EDGE ( 'NONE', *, *, #228, .T. ) ;
#66 = CARTESIAN_POINT ( 'NONE',  ( 0.000000000000000000, 0.000000000000000000, 0.000000000000000000 ) ) ;
#67 = ADVANCED_BREP_SHAPE_REPRESENTATION ( '2b76', ( #174, #179 ), #172 ) ;
#68 = AXIS2_PLACEMENT_3D ( 'NONE', #162, #5, #44 ) ;
#69 = ORIENTED_EDGE ( 'NONE', *, *, #216, .T. ) ;
#70 = EDGE_CURVE ( 'NONE', #177, #75, #139, .T. ) ;
#71 = PLANE ( 'NONE',  #101 ) ;
#72 = CC_DESIGN_APPROVAL ( #18, ( #95 ) ) ;
#73 = DIRECTION ( 'NONE',  ( 1.000000000000000000, 0.000000000000000000, 0.000000000000000000 ) ) ;
#74 = EDGE_CURVE ( 'NONE', #42, #131, #64, .T. ) ;
#75 = VERTEX_POINT ( 'NONE', #62 ) ;
#76 = LINE ( 'NONE', #100, #29 ) ;
#77 = AXIS2_PLACEMENT_3D ( 'NONE', #135, #122, #32 ) ;
#78 = ADVANCED_FACE ( 'NONE', ( #153, #38 ), #125, .T. ) ;
#79 = CARTESIAN_POINT ( 'NONE',  ( -1.000000000000000000, 0.000000000000000000, 2.000000000000000000 ) ) ;
#80 = EDGE_LOOP ( 'NONE', ( #183, #212, #69, #187 ) ) ;
#81 = CARTESIAN_POINT ( 'NONE',  ( -2.000000000000000000, 0.000000000000000000, 2.000000000000000000 ) ) ;
#82 = DIRECTION ( 'NONE',  ( 0.000000000000000000, 0.000000000000000000, 1.000000000000000000 ) ) ;
#83 = CARTESIAN_POINT ( 'NONE',  ( 0.000000000000000000, 0.000000000000000000, 0.000000000000000000 ) ) ;
#84 = DESIGN_CONTEXT ( 'detailed design', #102, 'design' ) ;
#85 = EDGE_CURVE ( 'NONE', #202, #25, #240, .T. ) ;
#86 = DATE_AND_TIME ( #250, #147 ) ;
#87 = AXIS2_PLACEMENT_3D ( 'NONE', #203, #6, #49 ) ;
#88 = DIRECTION ( 'NONE',  ( -0.000000000000000000, -0.000000000000000000, -1.000000000000000000 ) ) ;
#89 = ORIENTED_EDGE ( 'NONE', *, *, #207, .T. ) ;
#90 = COORDINATED_UNIVERSAL_TIME_OFFSET ( 1, 0, .AHEAD. ) ;
#91 = DATE_AND_TIME ( #254, #30 ) ;
#92 = CYLINDRICAL_SURFACE ( 'NONE', #144, 2.000000000000000000 ) ;
#93 = CARTESIAN_POINT ( 'NONE',  ( 2.000000000000000000, 2.449293598294706414E-16, 2.000000000000000000 ) ) ;
#94 = ORIENTED_EDGE ( 'NONE', *, *, #85, .F. ) ;
#95 = PRODUCT_DEFINITION ( 'NEZNÁMÝ', '', #154, #84 ) ;
#96 = LOCAL_TIME ( 13, 23, 38.00000000000000000, #233 ) ;
#97 = CIRCLE ( 'NONE', #46, 2.000000000000000000 ) ;
#98 = LOCAL_TIME ( 13, 23, 38.00000000000000000, #90 ) ;
#99 = ADVANCED_FACE ( 'NONE', ( #48 ), #205, .T. ) ;
#100 = CARTESIAN_POINT ( 'NONE',  ( 1.000000000000000000, 1.224646799147353207E-16, 160.0000000000000000 ) ) ;
#101 = AXIS2_PLACEMENT_3D ( 'NONE', #143, #130, #204 ) ;
#102 = APPLICATION_CONTEXT ( 'configuration controlled 3d designs of mechanical parts and assemblies' ) ;
#103 = VERTEX_POINT ( 'NONE', #126 ) ;
#104 = PRODUCT ( '2b76', '2b76', '', ( #16 ) ) ;
#105 = AXIS2_PLACEMENT_3D ( 'NONE', #53, #211, #164 ) ;
#106 = DATE_AND_TIME ( #194, #236 ) ;
#107 = APPROVAL_PERSON_ORGANIZATION ( #13, #18, #152 ) ;
#108 = DIRECTION ( 'NONE',  ( 0.000000000000000000, 0.000000000000000000, 1.000000000000000000 ) ) ;
#109 = PERSON_AND_ORGANIZATION_ROLE ( 'design_supplier' ) ;
#110 = APPROVAL_STATUS ( 'not_yet_approved' ) ;
#111 = COORDINATED_UNIVERSAL_TIME_OFFSET ( 1, 0, .AHEAD. ) ;
#112 = PERSON_AND_ORGANIZATION ( #180, #121 ) ;
#113 = DIRECTION ( 'NONE',  ( 0.000000000000000000, 0.000000000000000000, 1.000000000000000000 ) ) ;
#114 = ORIENTED_EDGE ( 'NONE', *, *, #148, .F. ) ;
#115 = DIRECTION ( 'NONE',  ( 0.000000000000000000, 0.000000000000000000, 1.000000000000000000 ) ) ;
#116 = APPROVAL ( #170, 'NEURÈENÝ' ) ;
#117 = FACE_OUTER_BOUND ( 'NONE', #192, .T. ) ;
#118 = ORIENTED_EDGE ( 'NONE', *, *, #70, .T. ) ;
#119 = EDGE_CURVE ( 'NONE', #42, #202, #241, .T. ) ;
#120 = ORIENTED_EDGE ( 'NONE', *, *, #4, .F. ) ;
#121 = ORGANIZATION ( 'NEURÈENÝ', 'NEURÈENÝ', '' ) ;
#122 = DIRECTION ( 'NONE',  ( -0.000000000000000000, -0.000000000000000000, -1.000000000000000000 ) ) ;
#123 = AXIS2_PLACEMENT_3D ( 'NONE', #45, #115, #157 ) ;
#124 = DIRECTION ( 'NONE',  ( -0.000000000000000000, -0.000000000000000000, -1.000000000000000000 ) ) ;
#125 = PLANE ( 'NONE',  #123 ) ;
#126 = CARTESIAN_POINT ( 'NONE',  ( -1.000000000000000000, 0.000000000000000000, 160.0000000000000000 ) ) ;
#127 = CARTESIAN_POINT ( 'NONE',  ( 2.000000000000000000, 2.449293598294706414E-16, 2.000000000000000000 ) ) ;
#128 = ADVANCED_FACE ( 'NONE', ( #255 ), #92, .T. ) ;
#129 = AXIS2_PLACEMENT_3D ( 'NONE', #59, #213, #171 ) ;
#130 = DIRECTION ( 'NONE',  ( 0.000000000000000000, 0.000000000000000000, 1.000000000000000000 ) ) ;
#131 = VERTEX_POINT ( 'NONE', #23 ) ;
#132 = PLANE ( 'NONE',  #68 ) ;
#133 = CC_DESIGN_PERSON_AND_ORGANIZATION_ASSIGNMENT ( #151, #227, ( #95 ) ) ;
#134 = DIRECTION ( 'NONE',  ( 1.000000000000000000, 0.000000000000000000, 0.000000000000000000 ) ) ;
#135 = CARTESIAN_POINT ( 'NONE',  ( 0.000000000000000000, 0.000000000000000000, 160.0000000000000000 ) ) ;
#136 = AXIS2_PLACEMENT_3D ( 'NONE', #239, #185, #73 ) ;
#137 = PERSON_AND_ORGANIZATION_ROLE ( 'design_owner' ) ;
#138 = CALENDAR_DATE ( 2023, 12, 2 ) ;
#139 = CIRCLE ( 'NONE', #129, 1.000000000000000000 ) ;
#140 = PERSON_AND_ORGANIZATION ( #180, #121 ) ;
#141 = CC_DESIGN_DATE_AND_TIME_ASSIGNMENT ( #91, #214, ( #215 ) ) ;
#142 = ORIENTED_EDGE ( 'NONE', *, *, #148, .T. ) ;
#143 = CARTESIAN_POINT ( 'NONE',  ( 0.000000000000000000, 0.000000000000000000, 0.000000000000000000 ) ) ;
#144 = AXIS2_PLACEMENT_3D ( 'NONE', #219, #237, #200 ) ;
#145 = CIRCLE ( 'NONE', #136, 1.000000000000000000 ) ;
#146 = AXIS2_PLACEMENT_3D ( 'NONE', #225, #52, #134 ) ;
#147 = LOCAL_TIME ( 13, 23, 38.00000000000000000, #57 ) ;
#148 = EDGE_CURVE ( 'NONE', #160, #75, #76, .T. ) ;
#149 = CC_DESIGN_SECURITY_CLASSIFICATION ( #215, ( #154 ) ) ;
#150 = CC_DESIGN_PERSON_AND_ORGANIZATION_ASSIGNMENT ( #37, #63, ( #154 ) ) ;
#151 = PERSON_AND_ORGANIZATION ( #180, #121 ) ;
#152 = APPROVAL_ROLE ( '' ) ;
#153 = FACE_BOUND ( 'NONE', #28, .T. ) ;
#154 = PRODUCT_DEFINITION_FORMATION_WITH_SPECIFIED_SOURCE ( 'LIBOVOLNÝ', '', #104, .NOT_KNOWN. ) ;
#155 = CC_DESIGN_DATE_AND_TIME_ASSIGNMENT ( #86, #173, ( #95 ) ) ;
#156 = ORIENTED_EDGE ( 'NONE', *, *, #216, .F. ) ;
#157 = DIRECTION ( 'NONE',  ( 1.000000000000000000, 0.000000000000000000, -0.000000000000000000 ) ) ;
#158 = DIRECTION ( 'NONE',  ( 1.000000000000000000, 0.000000000000000000, 0.000000000000000000 ) ) ;
#159 = FACE_OUTER_BOUND ( 'NONE', #80, .T. ) ;
#160 = VERTEX_POINT ( 'NONE', #244 ) ;
#161 = ORIENTED_EDGE ( 'NONE', *, *, #207, .F. ) ;
#162 = CARTESIAN_POINT ( 'NONE',  ( 0.000000000000000000, 0.000000000000000000, 160.0000000000000000 ) ) ;
#163 = DIRECTION ( 'NONE',  ( -0.000000000000000000, -0.000000000000000000, -1.000000000000000000 ) ) ;
#164 = DIRECTION ( 'NONE',  ( 1.000000000000000000, 0.000000000000000000, 0.000000000000000000 ) ) ;
#165 = CC_DESIGN_PERSON_AND_ORGANIZATION_ASSIGNMENT ( #112, #137, ( #104 ) ) ;
#166 = ORIENTED_EDGE ( 'NONE', *, *, #61, .T. ) ;
#167 = CLOSED_SHELL ( 'NONE', ( #24, #248, #128, #78, #222, #99, #197 ) ) ;
#168 = AXIS2_PLACEMENT_3D ( 'NONE', #41, #235, #27 ) ;
#169 = LINE ( 'NONE', #230, #251 ) ;
#170 = APPROVAL_STATUS ( 'not_yet_approved' ) ;
#171 = DIRECTION ( 'NONE',  ( 1.000000000000000000, 0.000000000000000000, 0.000000000000000000 ) ) ;
#172 =( GEOMETRIC_REPRESENTATION_CONTEXT ( 3 ) GLOBAL_UNCERTAINTY_ASSIGNED_CONTEXT ( ( #35 ) ) GLOBAL_UNIT_ASSIGNED_CONTEXT ( ( #224, #246, #10 ) ) REPRESENTATION_CONTEXT ( 'NONE', 'WORKASPACE' ) );
#173 = DATE_TIME_ROLE ( 'creation_date' ) ;
#174 = MANIFOLD_SOLID_BREP ( 'Pøidat vysunutím3', #167 ) ;
#175 = APPROVAL_ROLE ( '' ) ;
#176 = DIRECTION ( 'NONE',  ( -0.000000000000000000, -0.000000000000000000, -1.000000000000000000 ) ) ;
#177 = VERTEX_POINT ( 'NONE', #79 ) ;
#178 = CIRCLE ( 'NONE', #243, 1.000000000000000000 ) ;
#179 = AXIS2_PLACEMENT_3D ( 'NONE', #83, #82, #196 ) ;
#180 = PERSON ( 'NEURÈENÝ', 'NEURÈENÝ', 'NEURÈENÝ', ('NEURÈENÝ'), ('NEURÈENÝ'), ('NEURÈENÝ') ) ;
#181 = DIRECTION ( 'NONE',  ( 1.000000000000000000, 0.000000000000000000, 0.000000000000000000 ) ) ;
#182 = FACE_OUTER_BOUND ( 'NONE', #1, .T. ) ;
#183 = ORIENTED_EDGE ( 'NONE', *, *, #228, .F. ) ;
#184 = ORIENTED_EDGE ( 'NONE', *, *, #4, .T. ) ;
#185 = DIRECTION ( 'NONE',  ( 0.000000000000000000, 0.000000000000000000, 1.000000000000000000 ) ) ;
#186 = EDGE_CURVE ( 'NONE', #160, #103, #2, .T. ) ;
#187 = ORIENTED_EDGE ( 'NONE', *, *, #74, .F. ) ;
#188 = ORIENTED_EDGE ( 'NONE', *, *, #186, .F. ) ;
#189 = CC_DESIGN_PERSON_AND_ORGANIZATION_ASSIGNMENT ( #140, #109, ( #154 ) ) ;
#190 = FACE_OUTER_BOUND ( 'NONE', #201, .T. ) ;
#191 = CARTESIAN_POINT ( 'NONE',  ( -2.000000000000000000, 0.000000000000000000, 2.000000000000000000 ) ) ;
#192 = EDGE_LOOP ( 'NONE', ( #120, #156 ) ) ;
#193 = CALENDAR_DATE ( 2023, 12, 2 ) ;
#194 = CALENDAR_DATE ( 2023, 12, 2 ) ;
#195 = APPROVAL_DATE_TIME ( #106, #18 ) ;
#196 = DIRECTION ( 'NONE',  ( 1.000000000000000000, 0.000000000000000000, 0.000000000000000000 ) ) ;
#197 = ADVANCED_FACE ( 'NONE', ( #182 ), #132, .T. ) ;
#198 = APPLICATION_PROTOCOL_DEFINITION ( 'international standard', 'config_control_design', 1994, #102 ) ;
#199 = CIRCLE ( 'NONE', #210, 2.000000000000000000 ) ;
#200 = DIRECTION ( 'NONE',  ( -1.000000000000000000, 0.000000000000000000, 0.000000000000000000 ) ) ;
#201 = EDGE_LOOP ( 'NONE', ( #188, #142, #242, #221 ) ) ;
#202 = VERTEX_POINT ( 'NONE', #93 ) ;
#203 = CARTESIAN_POINT ( 'NONE',  ( 0.000000000000000000, 0.000000000000000000, 2.000000000000000000 ) ) ;
#204 = DIRECTION ( 'NONE',  ( 1.000000000000000000, 0.000000000000000000, -0.000000000000000000 ) ) ;
#205 = CYLINDRICAL_SURFACE ( 'NONE', #168, 1.000000000000000000 ) ;
#206 = EDGE_LOOP ( 'NONE', ( #114, #161, #166, #118 ) ) ;
#207 = EDGE_CURVE ( 'NONE', #103, #160, #145, .T. ) ;
#208 = ORIENTED_EDGE ( 'NONE', *, *, #119, .T. ) ;
#209 = CIRCLE ( 'NONE', #105, 2.000000000000000000 ) ;
#210 = AXIS2_PLACEMENT_3D ( 'NONE', #66, #47, #158 ) ;
#211 = DIRECTION ( 'NONE',  ( 0.000000000000000000, 0.000000000000000000, 1.000000000000000000 ) ) ;
#212 = ORIENTED_EDGE ( 'NONE', *, *, #85, .T. ) ;
#213 = DIRECTION ( 'NONE',  ( 0.000000000000000000, 0.000000000000000000, 1.000000000000000000 ) ) ;
#214 = DATE_TIME_ROLE ( 'classification_date' ) ;
#215 = SECURITY_CLASSIFICATION ( '', '', #218 ) ;
#216 = EDGE_CURVE ( 'NONE', #25, #131, #199, .T. ) ;
#217 = DATE_AND_TIME ( #193, #98 ) ;
#218 = SECURITY_CLASSIFICATION_LEVEL ( 'unclassified' ) ;
#219 = CARTESIAN_POINT ( 'NONE',  ( 0.000000000000000000, 0.000000000000000000, 2.000000000000000000 ) ) ;
#220 = DIRECTION ( 'NONE',  ( 0.000000000000000000, 0.000000000000000000, 1.000000000000000000 ) ) ;
#221 = ORIENTED_EDGE ( 'NONE', *, *, #61, .F. ) ;
#222 = ADVANCED_FACE ( 'NONE', ( #117 ), #71, .F. ) ;
#223 = VECTOR ( 'NONE', #88, 1000.000000000000000 ) ;
#224 =( LENGTH_UNIT ( ) NAMED_UNIT ( * ) SI_UNIT ( .MILLI., .METRE. ) );
#225 = CARTESIAN_POINT ( 'NONE',  ( 0.000000000000000000, 0.000000000000000000, 160.0000000000000000 ) ) ;
#226 = PRODUCT_DEFINITION_SHAPE ( 'NONE', 'NONE',  #95 ) ;
#227 = PERSON_AND_ORGANIZATION_ROLE ( 'creator' ) ;
#228 = EDGE_CURVE ( 'NONE', #202, #42, #97, .T. ) ;
#229 = APPROVAL_STATUS ( 'not_yet_approved' ) ;
#230 = CARTESIAN_POINT ( 'NONE',  ( -1.000000000000000000, 0.000000000000000000, 160.0000000000000000 ) ) ;
#231 = PERSON_AND_ORGANIZATION ( #180, #121 ) ;
#232 = EDGE_LOOP ( 'NONE', ( #94, #7, #55, #184 ) ) ;
#233 = COORDINATED_UNIVERSAL_TIME_OFFSET ( 1, 0, .AHEAD. ) ;
#234 = APPROVAL_ROLE ( '' ) ;
#235 = DIRECTION ( 'NONE',  ( -0.000000000000000000, -0.000000000000000000, -1.000000000000000000 ) ) ;
#236 = LOCAL_TIME ( 13, 23, 38.00000000000000000, #111 ) ;
#237 = DIRECTION ( 'NONE',  ( -0.000000000000000000, -0.000000000000000000, -1.000000000000000000 ) ) ;
#238 = CYLINDRICAL_SURFACE ( 'NONE', #87, 2.000000000000000000 ) ;
#239 = CARTESIAN_POINT ( 'NONE',  ( 0.000000000000000000, 0.000000000000000000, 160.0000000000000000 ) ) ;
#240 = LINE ( 'NONE', #127, #33 ) ;
#241 = CIRCLE ( 'NONE', #54, 2.000000000000000000 ) ;
#242 = ORIENTED_EDGE ( 'NONE', *, *, #51, .T. ) ;
#243 = AXIS2_PLACEMENT_3D ( 'NONE', #11, #108, #17 ) ;
#244 = CARTESIAN_POINT ( 'NONE',  ( 1.000000000000000000, 1.224646799147353207E-16, 160.0000000000000000 ) ) ;
#245 = CYLINDRICAL_SURFACE ( 'NONE', #77, 1.000000000000000000 ) ;
#246 =( NAMED_UNIT ( * ) PLANE_ANGLE_UNIT ( ) SI_UNIT ( $, .RADIAN. ) );
#247 = CC_DESIGN_APPROVAL ( #31, ( #154 ) ) ;
#248 = ADVANCED_FACE ( 'NONE', ( #159 ), #238, .T. ) ;
#249 = APPROVAL_DATE_TIME ( #217, #116 ) ;
#250 = CALENDAR_DATE ( 2023, 12, 2 ) ;
#251 = VECTOR ( 'NONE', #124, 1000.000000000000000 ) ;
#252 = APPROVAL_DATE_TIME ( #60, #31 ) ;
#253 = EDGE_LOOP ( 'NONE', ( #208, #65 ) ) ;
#254 = CALENDAR_DATE ( 2023, 12, 2 ) ;
#255 = FACE_OUTER_BOUND ( 'NONE', #232, .T. ) ;
ENDSEC;
END-ISO-10303-21;
