ISO-10303-21;
HEADER;
FILE_DESCRIPTION (( 'STEP AP203' ),
    '1' );
FILE_NAME ('15c4.STEP',
    '2022-07-07T12:34:50',
    ( '' ),
    ( '' ),
    'SwSTEP 2.0',
    'SolidWorks 2019',
    '' );
FILE_SCHEMA (( 'CONFIG_CONTROL_DESIGN' ));
ENDSEC;

DATA;
#1 = PERSON_AND_ORGANIZATION_ROLE ( 'design_supplier' ) ;
#2 = AXIS2_PLACEMENT_3D ( 'NONE', #90, #111, #206 ) ;
#3 = APPLICATION_PROTOCOL_DEFINITION ( 'international standard', 'config_control_design', 1994, #265 ) ;
#4 = MECHANICAL_CONTEXT ( 'NONE', #265, 'mechanical' ) ;
#5 = AXIS2_PLACEMENT_3D ( 'NONE', #61, #248, #280 ) ;
#6 = PERSON_AND_ORGANIZATION ( #288, #7 ) ;
#7 = ORGANIZATION ( 'NEURÈENÝ', 'NEURÈENÝ', '' ) ;
#8 = ORIENTED_EDGE ( 'NONE', *, *, #217, .F. ) ;
#9 = PRODUCT_DEFINITION_SHAPE ( 'NONE', 'NONE',  #83 ) ;
#10 = EDGE_LOOP ( 'NONE', ( #242, #269 ) ) ;
#11 = EDGE_LOOP ( 'NONE', ( #175, #225 ) ) ;
#12 = DIRECTION ( 'NONE',  ( -1.000000000000000000, 0.000000000000000000, 0.000000000000000000 ) ) ;
#13 = TOROIDAL_SURFACE ( 'NONE', #266, 4.200000000000000178, 0.2000000000000000111 ) ;
#14 = EDGE_LOOP ( 'NONE', ( #219, #174, #133, #102 ) ) ;
#15 = CARTESIAN_POINT ( 'NONE',  ( -7.000000000000000000, 0.000000000000000000, 5.000000000000000000 ) ) ;
#16 = ORIENTED_EDGE ( 'NONE', *, *, #52, .T. ) ;
#17 = LINE ( 'NONE', #36, #207 ) ;
#18 = EDGE_CURVE ( 'NONE', #124, #272, #302, .T. ) ;
#19 = CARTESIAN_POINT ( 'NONE',  ( 0.000000000000000000, 0.000000000000000000, 130.0000000000000000 ) ) ;
#20 = CC_DESIGN_DATE_AND_TIME_ASSIGNMENT ( #96, #169, ( #76 ) ) ;
#21 = DIRECTION ( 'NONE',  ( 0.000000000000000000, 0.000000000000000000, 1.000000000000000000 ) ) ;
#22 = DIRECTION ( 'NONE',  ( -0.000000000000000000, -0.000000000000000000, -1.000000000000000000 ) ) ;
#23 = CARTESIAN_POINT ( 'NONE',  ( 0.000000000000000000, 0.000000000000000000, 5.000000000000000000 ) ) ;
#24 = AXIS2_PLACEMENT_3D ( 'NONE', #91, #166, #114 ) ;
#25 = PERSON_AND_ORGANIZATION_ROLE ( 'creator' ) ;
#26 = PERSON_AND_ORGANIZATION ( #288, #7 ) ;
#27 = LOCAL_TIME ( 14, 34, 50.00000000000000000, #28 ) ;
#28 = COORDINATED_UNIVERSAL_TIME_OFFSET ( 1, 0, .AHEAD. ) ;
#29 = APPROVAL ( #71, 'NEURÈENÝ' ) ;
#30 = EDGE_LOOP ( 'NONE', ( #42, #215 ) ) ;
#31 = PERSON_AND_ORGANIZATION ( #288, #7 ) ;
#32 = EDGE_LOOP ( 'NONE', ( #8, #216, #156, #218 ) ) ;
#33 = AXIS2_PLACEMENT_3D ( 'NONE', #141, #45, #113 ) ;
#34 = CARTESIAN_POINT ( 'NONE',  ( 7.000000000000000000, 8.572527594031473190E-16, 5.000000000000000000 ) ) ;
#35 = CIRCLE ( 'NONE', #262, 4.000000000000000000 ) ;
#36 = CARTESIAN_POINT ( 'NONE',  ( 7.000000000000000000, 8.572527594031473190E-16, 5.000000000000000000 ) ) ;
#37 = EDGE_LOOP ( 'NONE', ( #152, #104, #129, #244 ) ) ;
#38 = EDGE_CURVE ( 'NONE', #250, #124, #220, .T. ) ;
#39 = CIRCLE ( 'NONE', #172, 7.000000000000000000 ) ;
#40 = VERTEX_POINT ( 'NONE', #154 ) ;
#41 = AXIS2_PLACEMENT_3D ( 'NONE', #97, #261, #236 ) ;
#42 = ORIENTED_EDGE ( 'NONE', *, *, #259, .T. ) ;
#43 = DIRECTION ( 'NONE',  ( -0.000000000000000000, -0.000000000000000000, -1.000000000000000000 ) ) ;
#44 =( NAMED_UNIT ( * ) PLANE_ANGLE_UNIT ( ) SI_UNIT ( $, .RADIAN. ) );
#45 = DIRECTION ( 'NONE',  ( 0.000000000000000000, 0.000000000000000000, 1.000000000000000000 ) ) ;
#46 = AXIS2_PLACEMENT_3D ( 'NONE', #183, #228, #208 ) ;
#47 = DIRECTION ( 'NONE',  ( -1.000000000000000000, 0.000000000000000000, 0.000000000000000000 ) ) ;
#48 = DIRECTION ( 'NONE',  ( 0.000000000000000000, 0.000000000000000000, 1.000000000000000000 ) ) ;
#49 = CARTESIAN_POINT ( 'NONE',  ( 0.000000000000000000, 0.000000000000000000, 5.199999999999996625 ) ) ;
#50 = ADVANCED_BREP_SHAPE_REPRESENTATION ( '15c4', ( #239, #41 ), #305 ) ;
#51 = CIRCLE ( 'NONE', #246, 7.000000000000000000 ) ;
#52 = EDGE_CURVE ( 'NONE', #128, #250, #132, .T. ) ;
#53 = PERSON_AND_ORGANIZATION ( #288, #7 ) ;
#54 = APPLICATION_CONTEXT ( 'configuration controlled 3d designs of mechanical parts and assemblies' ) ;
#55 = DATE_AND_TIME ( #123, #112 ) ;
#56 = APPROVAL_ROLE ( '' ) ;
#57 = DIRECTION ( 'NONE',  ( 0.000000000000000000, 0.000000000000000000, -1.000000000000000000 ) ) ;
#58 = AXIS2_PLACEMENT_3D ( 'NONE', #285, #227, #158 ) ;
#59 = CARTESIAN_POINT ( 'NONE',  ( 4.200000000000000178, 0.000000000000000000, 4.999999999999998224 ) ) ;
#60 = VERTEX_POINT ( 'NONE', #34 ) ;
#61 = CARTESIAN_POINT ( 'NONE',  ( -4.200000000000000178, 5.143516556418882928E-16, 5.199999999999996625 ) ) ;
#62 = ORIENTED_EDGE ( 'NONE', *, *, #142, .F. ) ;
#63 = DIRECTION ( 'NONE',  ( -0.000000000000000000, -0.000000000000000000, -1.000000000000000000 ) ) ;
#64 = CC_DESIGN_DATE_AND_TIME_ASSIGNMENT ( #55, #73, ( #83 ) ) ;
#65 = CC_DESIGN_SECURITY_CLASSIFICATION ( #76, ( #95 ) ) ;
#66 = CC_DESIGN_PERSON_AND_ORGANIZATION_ASSIGNMENT ( #94, #25, ( #95 ) ) ;
#67 = DIRECTION ( 'NONE',  ( -1.000000000000000000, 0.000000000000000000, 0.000000000000000000 ) ) ;
#68 = FACE_OUTER_BOUND ( 'NONE', #30, .T. ) ;
#69 = DIRECTION ( 'NONE',  ( 1.000000000000000000, 0.000000000000000000, 0.000000000000000000 ) ) ;
#70 = CALENDAR_DATE ( 2022, 7, 7 ) ;
#71 = APPROVAL_STATUS ( 'not_yet_approved' ) ;
#72 = AXIS2_PLACEMENT_3D ( 'NONE', #117, #286, #88 ) ;
#73 = DATE_TIME_ROLE ( 'creation_date' ) ;
#74 = ADVANCED_FACE ( 'NONE', ( #226 ), #153, .F. ) ;
#75 = AXIS2_PLACEMENT_3D ( 'NONE', #178, #278, #282 ) ;
#76 = SECURITY_CLASSIFICATION ( '', '', #118 ) ;
#77 = DIRECTION ( 'NONE',  ( 1.000000000000000000, 0.000000000000000000, -0.000000000000000000 ) ) ;
#78 = AXIS2_PLACEMENT_3D ( 'NONE', #134, #63, #109 ) ;
#79 = CARTESIAN_POINT ( 'NONE',  ( 7.000000000000000000, 8.572527594031473190E-16, 0.000000000000000000 ) ) ;
#80 = AXIS2_PLACEMENT_3D ( 'NONE', #23, #304, #47 ) ;
#81 = DIRECTION ( 'NONE',  ( 0.000000000000000000, 0.000000000000000000, 1.000000000000000000 ) ) ;
#82 = ORIENTED_EDGE ( 'NONE', *, *, #277, .F. ) ;
#83 = PRODUCT_DEFINITION ( 'NEZNÁMÝ', '', #95, #241 ) ;
#84 = DIRECTION ( 'NONE',  ( 1.000000000000000000, 0.000000000000000000, 0.000000000000000000 ) ) ;
#85 = CIRCLE ( 'NONE', #75, 4.000000000000000000 ) ;
#86 = DIRECTION ( 'NONE',  ( 0.000000000000000000, 0.000000000000000000, 1.000000000000000000 ) ) ;
#87 = DIRECTION ( 'NONE',  ( 0.000000000000000000, 0.000000000000000000, 1.000000000000000000 ) ) ;
#88 = DIRECTION ( 'NONE',  ( 1.000000000000000000, 0.000000000000000000, 0.000000000000000000 ) ) ;
#89 = ADVANCED_FACE ( 'NONE', ( #155 ), #292, .T. ) ;
#90 = CARTESIAN_POINT ( 'NONE',  ( 0.000000000000000000, 0.000000000000000000, 5.000000000000000000 ) ) ;
#91 = CARTESIAN_POINT ( 'NONE',  ( 0.000000000000000000, 0.000000000000000000, 130.0000000000000000 ) ) ;
#92 = EDGE_CURVE ( 'NONE', #40, #103, #39, .T. ) ;
#93 = DIRECTION ( 'NONE',  ( -0.000000000000000000, -0.000000000000000000, -1.000000000000000000 ) ) ;
#94 = PERSON_AND_ORGANIZATION ( #288, #7 ) ;
#95 = PRODUCT_DEFINITION_FORMATION_WITH_SPECIFIED_SOURCE ( 'LIBOVOLNÝ', '', #254, .NOT_KNOWN. ) ;
#96 = DATE_AND_TIME ( #70, #186 ) ;
#97 = CARTESIAN_POINT ( 'NONE',  ( 0.000000000000000000, 0.000000000000000000, 0.000000000000000000 ) ) ;
#98 = COORDINATED_UNIVERSAL_TIME_OFFSET ( 1, 0, .AHEAD. ) ;
#99 = CALENDAR_DATE ( 2022, 7, 7 ) ;
#100 = CIRCLE ( 'NONE', #58, 7.000000000000000000 ) ;
#101 = DIRECTION ( 'NONE',  ( 0.000000000000000000, -1.000000000000000000, 0.000000000000000000 ) ) ;
#102 = ORIENTED_EDGE ( 'NONE', *, *, #92, .T. ) ;
#103 = VERTEX_POINT ( 'NONE', #79 ) ;
#104 = ORIENTED_EDGE ( 'NONE', *, *, #106, .T. ) ;
#105 = CARTESIAN_POINT ( 'NONE',  ( 0.000000000000000000, 0.000000000000000000, 0.000000000000000000 ) ) ;
#106 = EDGE_CURVE ( 'NONE', #60, #103, #17, .T. ) ;
#107 = EDGE_LOOP ( 'NONE', ( #126, #279 ) ) ;
#108 = CC_DESIGN_PERSON_AND_ORGANIZATION_ASSIGNMENT ( #26, #1, ( #95 ) ) ;
#109 = DIRECTION ( 'NONE',  ( 1.000000000000000000, 0.000000000000000000, 0.000000000000000000 ) ) ;
#110 = AXIS2_PLACEMENT_3D ( 'NONE', #195, #81, #77 ) ;
#111 = DIRECTION ( 'NONE',  ( -0.000000000000000000, -0.000000000000000000, -1.000000000000000000 ) ) ;
#112 = LOCAL_TIME ( 14, 34, 50.00000000000000000, #240 ) ;
#113 = DIRECTION ( 'NONE',  ( 1.000000000000000000, 0.000000000000000000, 0.000000000000000000 ) ) ;
#114 = DIRECTION ( 'NONE',  ( 1.000000000000000000, 0.000000000000000000, -0.000000000000000000 ) ) ;
#115 =( LENGTH_UNIT ( ) NAMED_UNIT ( * ) SI_UNIT ( .MILLI., .METRE. ) );
#116 = CC_DESIGN_PERSON_AND_ORGANIZATION_ASSIGNMENT ( #267, #193, ( #83 ) ) ;
#117 = CARTESIAN_POINT ( 'NONE',  ( 0.000000000000000000, 0.000000000000000000, 130.0000000000000000 ) ) ;
#118 = SECURITY_CLASSIFICATION_LEVEL ( 'unclassified' ) ;
#119 = LOCAL_TIME ( 14, 34, 50.00000000000000000, #171 ) ;
#120 = ADVANCED_FACE ( 'NONE', ( #223, #276 ), #200, .T. ) ;
#121 = APPROVAL_STATUS ( 'not_yet_approved' ) ;
#122 = VERTEX_POINT ( 'NONE', #15 ) ;
#123 = CALENDAR_DATE ( 2022, 7, 7 ) ;
#124 = VERTEX_POINT ( 'NONE', #59 ) ;
#125 = AXIS2_PLACEMENT_3D ( 'NONE', #253, #233, #162 ) ;
#126 = ORIENTED_EDGE ( 'NONE', *, *, #224, .T. ) ;
#127 = EDGE_LOOP ( 'NONE', ( #82, #214, #295, #16 ) ) ;
#128 = VERTEX_POINT ( 'NONE', #130 ) ;
#129 = ORIENTED_EDGE ( 'NONE', *, *, #245, .T. ) ;
#130 = CARTESIAN_POINT ( 'NONE',  ( -4.000000000000000000, 0.000000000000000000, 5.199999999999996625 ) ) ;
#131 = EDGE_CURVE ( 'NONE', #250, #128, #85, .T. ) ;
#132 = CIRCLE ( 'NONE', #147, 4.000000000000000000 ) ;
#133 = ORIENTED_EDGE ( 'NONE', *, *, #249, .T. ) ;
#134 = CARTESIAN_POINT ( 'NONE',  ( 0.000000000000000000, 0.000000000000000000, 5.000000000000000000 ) ) ;
#135 = VERTEX_POINT ( 'NONE', #180 ) ;
#136 = ORIENTED_EDGE ( 'NONE', *, *, #52, .F. ) ;
#137 = CYLINDRICAL_SURFACE ( 'NONE', #281, 4.000000000000000000 ) ;
#138 = CC_DESIGN_PERSON_AND_ORGANIZATION_ASSIGNMENT ( #53, #209, ( #254 ) ) ;
#139 = FACE_OUTER_BOUND ( 'NONE', #196, .T. ) ;
#140 = CIRCLE ( 'NONE', #46, 7.000000000000000000 ) ;
#141 = CARTESIAN_POINT ( 'NONE',  ( 0.000000000000000000, 0.000000000000000000, 5.199999999999996625 ) ) ;
#142 = EDGE_CURVE ( 'NONE', #128, #272, #143, .T. ) ;
#143 = CIRCLE ( 'NONE', #5, 0.1999999999999996503 ) ;
#144 = CARTESIAN_POINT ( 'NONE',  ( -4.000000000000000000, 0.000000000000000000, 130.0000000000000000 ) ) ;
#145 =( NAMED_UNIT ( * ) SI_UNIT ( $, .STERADIAN. ) SOLID_ANGLE_UNIT ( ) );
#146 = APPROVAL_DATE_TIME ( #210, #150 ) ;
#147 = AXIS2_PLACEMENT_3D ( 'NONE', #202, #157, #291 ) ;
#148 = DATE_AND_TIME ( #191, #119 ) ;
#149 = PRODUCT_RELATED_PRODUCT_CATEGORY ( 'detail', '', ( #254 ) ) ;
#150 = APPROVAL ( #121, 'NEURÈENÝ' ) ;
#151 = ORIENTED_EDGE ( 'NONE', *, *, #142, .T. ) ;
#152 = ORIENTED_EDGE ( 'NONE', *, *, #303, .F. ) ;
#153 = PLANE ( 'NONE',  #110 ) ;
#154 = CARTESIAN_POINT ( 'NONE',  ( -7.000000000000000000, 0.000000000000000000, 0.000000000000000000 ) ) ;
#155 = FACE_OUTER_BOUND ( 'NONE', #37, .T. ) ;
#156 = ORIENTED_EDGE ( 'NONE', *, *, #131, .T. ) ;
#157 = DIRECTION ( 'NONE',  ( 0.000000000000000000, 0.000000000000000000, 1.000000000000000000 ) ) ;
#158 = DIRECTION ( 'NONE',  ( 1.000000000000000000, 0.000000000000000000, 0.000000000000000000 ) ) ;
#159 = ADVANCED_FACE ( 'NONE', ( #251 ), #260, .F. ) ;
#160 = CARTESIAN_POINT ( 'NONE',  ( 4.000000000000000000, 4.898587196589412829E-16, 5.199999999999996625 ) ) ;
#161 = CLOSED_SHELL ( 'NONE', ( #164, #234, #89, #238, #120, #74, #268, #192, #159 ) ) ;
#162 = DIRECTION ( 'NONE',  ( -1.000000000000000000, 0.000000000000000000, 0.000000000000000000 ) ) ;
#163 = APPROVAL_PERSON_ORGANIZATION ( #6, #150, #56 ) ;
#164 = ADVANCED_FACE ( 'NONE', ( #139 ), #13, .F. ) ;
#165 = DIRECTION ( 'NONE',  ( -0.000000000000000000, -0.000000000000000000, -1.000000000000000000 ) ) ;
#166 = DIRECTION ( 'NONE',  ( 0.000000000000000000, 0.000000000000000000, 1.000000000000000000 ) ) ;
#167 = APPROVAL_STATUS ( 'not_yet_approved' ) ;
#168 = CIRCLE ( 'NONE', #72, 4.000000000000000000 ) ;
#169 = DATE_TIME_ROLE ( 'classification_date' ) ;
#170 = DATE_AND_TIME ( #190, #182 ) ;
#171 = COORDINATED_UNIVERSAL_TIME_OFFSET ( 1, 0, .AHEAD. ) ;
#172 = AXIS2_PLACEMENT_3D ( 'NONE', #105, #247, #84 ) ;
#173 = EDGE_CURVE ( 'NONE', #272, #124, #204, .T. ) ;
#174 = ORIENTED_EDGE ( 'NONE', *, *, #224, .F. ) ;
#175 = ORIENTED_EDGE ( 'NONE', *, *, #18, .T. ) ;
#176 = DIRECTION ( 'NONE',  ( -0.000000000000000000, -0.000000000000000000, -1.000000000000000000 ) ) ;
#177 = ORIENTED_EDGE ( 'NONE', *, *, #18, .F. ) ;
#178 = CARTESIAN_POINT ( 'NONE',  ( 0.000000000000000000, 0.000000000000000000, 5.199999999999996625 ) ) ;
#179 = VERTEX_POINT ( 'NONE', #144 ) ;
#180 = CARTESIAN_POINT ( 'NONE',  ( 4.000000000000000000, 4.898587196589412829E-16, 130.0000000000000000 ) ) ;
#181 = DIRECTION ( 'NONE',  ( 1.000000000000000000, 0.000000000000000000, -0.000000000000000000 ) ) ;
#182 = LOCAL_TIME ( 14, 34, 50.00000000000000000, #98 ) ;
#183 = CARTESIAN_POINT ( 'NONE',  ( 0.000000000000000000, 0.000000000000000000, 5.000000000000000000 ) ) ;
#184 = CARTESIAN_POINT ( 'NONE',  ( -4.000000000000000000, 0.000000000000000000, 130.0000000000000000 ) ) ;
#185 = FACE_OUTER_BOUND ( 'NONE', #32, .T. ) ;
#186 = LOCAL_TIME ( 14, 34, 50.00000000000000000, #287 ) ;
#187 = CARTESIAN_POINT ( 'NONE',  ( -7.000000000000000000, 0.000000000000000000, 5.000000000000000000 ) ) ;
#188 = CARTESIAN_POINT ( 'NONE',  ( 0.000000000000000000, 0.000000000000000000, 5.000000000000000000 ) ) ;
#189 = APPROVAL_DATE_TIME ( #148, #29 ) ;
#190 = CALENDAR_DATE ( 2022, 7, 7 ) ;
#191 = CALENDAR_DATE ( 2022, 7, 7 ) ;
#192 = ADVANCED_FACE ( 'NONE', ( #68 ), #205, .T. ) ;
#193 = PERSON_AND_ORGANIZATION_ROLE ( 'creator' ) ;
#194 = AXIS2_PLACEMENT_3D ( 'NONE', #201, #43, #12 ) ;
#195 = CARTESIAN_POINT ( 'NONE',  ( 0.000000000000000000, 0.000000000000000000, 0.000000000000000000 ) ) ;
#196 = EDGE_LOOP ( 'NONE', ( #136, #151, #177, #296 ) ) ;
#197 = ORIENTED_EDGE ( 'NONE', *, *, #131, .F. ) ;
#198 = AXIS2_PLACEMENT_3D ( 'NONE', #294, #101, #57 ) ;
#199 = APPROVAL_PERSON_ORGANIZATION ( #237, #273, #263 ) ;
#200 = PLANE ( 'NONE',  #270 ) ;
#201 = CARTESIAN_POINT ( 'NONE',  ( 0.000000000000000000, 0.000000000000000000, 5.000000000000000000 ) ) ;
#202 = CARTESIAN_POINT ( 'NONE',  ( 0.000000000000000000, 0.000000000000000000, 5.199999999999996625 ) ) ;
#203 = CARTESIAN_POINT ( 'NONE',  ( 0.000000000000000000, 0.000000000000000000, 130.0000000000000000 ) ) ;
#204 = CIRCLE ( 'NONE', #2, 4.200000000000000178 ) ;
#205 = PLANE ( 'NONE',  #24 ) ;
#206 = DIRECTION ( 'NONE',  ( 1.000000000000000000, 0.000000000000000000, 0.000000000000000000 ) ) ;
#207 = VECTOR ( 'NONE', #176, 1000.000000000000000 ) ;
#208 = DIRECTION ( 'NONE',  ( 1.000000000000000000, 0.000000000000000000, 0.000000000000000000 ) ) ;
#209 = PERSON_AND_ORGANIZATION_ROLE ( 'design_owner' ) ;
#210 = DATE_AND_TIME ( #99, #27 ) ;
#211 = SHAPE_DEFINITION_REPRESENTATION ( #9, #50 ) ;
#212 = APPROVAL_ROLE ( '' ) ;
#213 = CC_DESIGN_PERSON_AND_ORGANIZATION_ASSIGNMENT ( #307, #289, ( #76 ) ) ;
#214 = ORIENTED_EDGE ( 'NONE', *, *, #259, .F. ) ;
#215 = ORIENTED_EDGE ( 'NONE', *, *, #217, .T. ) ;
#216 = ORIENTED_EDGE ( 'NONE', *, *, #277, .T. ) ;
#217 = EDGE_CURVE ( 'NONE', #135, #179, #35, .T. ) ;
#218 = ORIENTED_EDGE ( 'NONE', *, *, #231, .F. ) ;
#219 = ORIENTED_EDGE ( 'NONE', *, *, #106, .F. ) ;
#220 = CIRCLE ( 'NONE', #198, 0.1999999999999996503 ) ;
#221 = EDGE_LOOP ( 'NONE', ( #62, #197, #275, #243 ) ) ;
#222 = VECTOR ( 'NONE', #299, 1000.000000000000000 ) ;
#223 = FACE_BOUND ( 'NONE', #11, .T. ) ;
#224 = EDGE_CURVE ( 'NONE', #122, #60, #140, .T. ) ;
#225 = ORIENTED_EDGE ( 'NONE', *, *, #173, .T. ) ;
#226 = FACE_OUTER_BOUND ( 'NONE', #10, .T. ) ;
#227 = DIRECTION ( 'NONE',  ( 0.000000000000000000, 0.000000000000000000, 1.000000000000000000 ) ) ;
#228 = DIRECTION ( 'NONE',  ( 0.000000000000000000, 0.000000000000000000, 1.000000000000000000 ) ) ;
#229 = VECTOR ( 'NONE', #165, 1000.000000000000000 ) ;
#230 = CYLINDRICAL_SURFACE ( 'NONE', #80, 7.000000000000000000 ) ;
#231 = EDGE_CURVE ( 'NONE', #179, #128, #300, .T. ) ;
#232 = DIRECTION ( 'NONE',  ( 1.000000000000000000, 0.000000000000000000, 0.000000000000000000 ) ) ;
#233 = DIRECTION ( 'NONE',  ( -0.000000000000000000, -0.000000000000000000, -1.000000000000000000 ) ) ;
#234 = ADVANCED_FACE ( 'NONE', ( #185 ), #252, .T. ) ;
#235 = APPLICATION_PROTOCOL_DEFINITION ( 'international standard', 'config_control_design', 1994, #54 ) ;
#236 = DIRECTION ( 'NONE',  ( 1.000000000000000000, 0.000000000000000000, 0.000000000000000000 ) ) ;
#237 = PERSON_AND_ORGANIZATION ( #288, #7 ) ;
#238 = ADVANCED_FACE ( 'NONE', ( #258 ), #230, .T. ) ;
#239 = MANIFOLD_SOLID_BREP ( 'Zaoblit1', #161 ) ;
#240 = COORDINATED_UNIVERSAL_TIME_OFFSET ( 1, 0, .AHEAD. ) ;
#241 = DESIGN_CONTEXT ( 'detailed design', #54, 'design' ) ;
#242 = ORIENTED_EDGE ( 'NONE', *, *, #92, .F. ) ;
#243 = ORIENTED_EDGE ( 'NONE', *, *, #173, .F. ) ;
#244 = ORIENTED_EDGE ( 'NONE', *, *, #249, .F. ) ;
#245 = EDGE_CURVE ( 'NONE', #103, #40, #100, .T. ) ;
#246 = AXIS2_PLACEMENT_3D ( 'NONE', #188, #48, #255 ) ;
#247 = DIRECTION ( 'NONE',  ( 0.000000000000000000, 0.000000000000000000, 1.000000000000000000 ) ) ;
#248 = DIRECTION ( 'NONE',  ( 1.224646799147353207E-16, 1.000000000000000000, -0.000000000000000000 ) ) ;
#249 = EDGE_CURVE ( 'NONE', #122, #40, #283, .T. ) ;
#250 = VERTEX_POINT ( 'NONE', #160 ) ;
#251 = FACE_OUTER_BOUND ( 'NONE', #221, .T. ) ;
#252 = CYLINDRICAL_SURFACE ( 'NONE', #125, 4.000000000000000000 ) ;
#253 = CARTESIAN_POINT ( 'NONE',  ( 0.000000000000000000, 0.000000000000000000, 130.0000000000000000 ) ) ;
#254 = PRODUCT ( '15c4', '15c4', '', ( #4 ) ) ;
#255 = DIRECTION ( 'NONE',  ( 1.000000000000000000, 0.000000000000000000, 0.000000000000000000 ) ) ;
#256 = APPROVAL_PERSON_ORGANIZATION ( #31, #29, #212 ) ;
#257 = CARTESIAN_POINT ( 'NONE',  ( 4.000000000000000000, 4.898587196589412829E-16, 130.0000000000000000 ) ) ;
#258 = FACE_OUTER_BOUND ( 'NONE', #14, .T. ) ;
#259 = EDGE_CURVE ( 'NONE', #179, #135, #168, .T. ) ;
#260 = TOROIDAL_SURFACE ( 'NONE', #33, 4.200000000000000178, 0.2000000000000000111 ) ;
#261 = DIRECTION ( 'NONE',  ( 0.000000000000000000, 0.000000000000000000, 1.000000000000000000 ) ) ;
#262 = AXIS2_PLACEMENT_3D ( 'NONE', #203, #87, #232 ) ;
#263 = APPROVAL_ROLE ( '' ) ;
#264 = APPROVAL_DATE_TIME ( #170, #273 ) ;
#265 = APPLICATION_CONTEXT ( 'configuration controlled 3d designs of mechanical parts and assemblies' ) ;
#266 = AXIS2_PLACEMENT_3D ( 'NONE', #49, #21, #69 ) ;
#267 = PERSON_AND_ORGANIZATION ( #288, #7 ) ;
#268 = ADVANCED_FACE ( 'NONE', ( #306 ), #137, .T. ) ;
#269 = ORIENTED_EDGE ( 'NONE', *, *, #245, .F. ) ;
#270 = AXIS2_PLACEMENT_3D ( 'NONE', #297, #86, #181 ) ;
#271 = UNCERTAINTY_MEASURE_WITH_UNIT (LENGTH_MEASURE( 1.000000000000000082E-05 ), #115, 'distance_accuracy_value', 'NONE');
#272 = VERTEX_POINT ( 'NONE', #284 ) ;
#273 = APPROVAL ( #167, 'NEURÈENÝ' ) ;
#274 = CC_DESIGN_APPROVAL ( #150, ( #95 ) ) ;
#275 = ORIENTED_EDGE ( 'NONE', *, *, #38, .T. ) ;
#276 = FACE_OUTER_BOUND ( 'NONE', #107, .T. ) ;
#277 = EDGE_CURVE ( 'NONE', #135, #250, #301, .T. ) ;
#278 = DIRECTION ( 'NONE',  ( 0.000000000000000000, 0.000000000000000000, 1.000000000000000000 ) ) ;
#279 = ORIENTED_EDGE ( 'NONE', *, *, #303, .T. ) ;
#280 = DIRECTION ( 'NONE',  ( -1.000000000000000000, 1.224646799147353454E-16, 0.000000000000000000 ) ) ;
#281 = AXIS2_PLACEMENT_3D ( 'NONE', #19, #93, #67 ) ;
#282 = DIRECTION ( 'NONE',  ( 1.000000000000000000, 0.000000000000000000, 0.000000000000000000 ) ) ;
#283 = LINE ( 'NONE', #187, #229 ) ;
#284 = CARTESIAN_POINT ( 'NONE',  ( -4.200000000000000178, 5.143516556418882928E-16, 4.999999999999998224 ) ) ;
#285 = CARTESIAN_POINT ( 'NONE',  ( 0.000000000000000000, 0.000000000000000000, 0.000000000000000000 ) ) ;
#286 = DIRECTION ( 'NONE',  ( 0.000000000000000000, 0.000000000000000000, 1.000000000000000000 ) ) ;
#287 = COORDINATED_UNIVERSAL_TIME_OFFSET ( 1, 0, .AHEAD. ) ;
#288 = PERSON ( 'NEURÈENÝ', 'NEURÈENÝ', 'NEURÈENÝ', ('NEURÈENÝ'), ('NEURÈENÝ'), ('NEURÈENÝ') ) ;
#289 = PERSON_AND_ORGANIZATION_ROLE ( 'classification_officer' ) ;
#290 = CC_DESIGN_APPROVAL ( #273, ( #76 ) ) ;
#291 = DIRECTION ( 'NONE',  ( 1.000000000000000000, 0.000000000000000000, 0.000000000000000000 ) ) ;
#292 = CYLINDRICAL_SURFACE ( 'NONE', #194, 7.000000000000000000 ) ;
#293 = CC_DESIGN_APPROVAL ( #29, ( #83 ) ) ;
#294 = CARTESIAN_POINT ( 'NONE',  ( 4.200000000000000178, 0.000000000000000000, 5.199999999999996625 ) ) ;
#295 = ORIENTED_EDGE ( 'NONE', *, *, #231, .T. ) ;
#296 = ORIENTED_EDGE ( 'NONE', *, *, #38, .F. ) ;
#297 = CARTESIAN_POINT ( 'NONE',  ( 0.000000000000000000, 0.000000000000000000, 5.000000000000000000 ) ) ;
#298 = VECTOR ( 'NONE', #22, 1000.000000000000000 ) ;
#299 = DIRECTION ( 'NONE',  ( -0.000000000000000000, -0.000000000000000000, -1.000000000000000000 ) ) ;
#300 = LINE ( 'NONE', #184, #222 ) ;
#301 = LINE ( 'NONE', #257, #298 ) ;
#302 = CIRCLE ( 'NONE', #78, 4.200000000000000178 ) ;
#303 = EDGE_CURVE ( 'NONE', #60, #122, #51, .T. ) ;
#304 = DIRECTION ( 'NONE',  ( -0.000000000000000000, -0.000000000000000000, -1.000000000000000000 ) ) ;
#305 =( GEOMETRIC_REPRESENTATION_CONTEXT ( 3 ) GLOBAL_UNCERTAINTY_ASSIGNED_CONTEXT ( ( #271 ) ) GLOBAL_UNIT_ASSIGNED_CONTEXT ( ( #115, #44, #145 ) ) REPRESENTATION_CONTEXT ( 'NONE', 'WORKASPACE' ) );
#306 = FACE_OUTER_BOUND ( 'NONE', #127, .T. ) ;
#307 = PERSON_AND_ORGANIZATION ( #288, #7 ) ;
ENDSEC;
END-ISO-10303-21;
