ISO-10303-21;
HEADER;
FILE_DESCRIPTION (( 'STEP AP203' ),
    '1' );
FILE_NAME ('5f3f.STEP',
    '2022-07-07T12:52:43',
    ( '' ),
    ( '' ),
    'SwSTEP 2.0',
    'SolidWorks 2019',
    '' );
FILE_SCHEMA (( 'CONFIG_CONTROL_DESIGN' ));
ENDSEC;

DATA;
#1 = DIRECTION ( 'NONE',  ( 1.000000000000000000, 0.000000000000000000, 0.000000000000000000 ) ) ;
#2 = DIRECTION ( 'NONE',  ( 1.224646799147353207E-16, 1.000000000000000000, -0.000000000000000000 ) ) ;
#3 = DIRECTION ( 'NONE',  ( -0.000000000000000000, -0.000000000000000000, -1.000000000000000000 ) ) ;
#4 = ORIENTED_EDGE ( 'NONE', *, *, #197, .F. ) ;
#5 = DIRECTION ( 'NONE',  ( -0.000000000000000000, -0.000000000000000000, -1.000000000000000000 ) ) ;
#6 = CARTESIAN_POINT ( 'NONE',  ( 1.950000000000000400, 0.000000000000000000, 3.199999999999994404 ) ) ;
#7 = DATE_TIME_ROLE ( 'classification_date' ) ;
#8 = DIRECTION ( 'NONE',  ( 1.000000000000000000, 0.000000000000000000, 0.000000000000000000 ) ) ;
#9 = AXIS2_PLACEMENT_3D ( 'NONE', #66, #212, #70 ) ;
#10 = EDGE_CURVE ( 'NONE', #200, #199, #30, .T. ) ;
#11 = ORIENTED_EDGE ( 'NONE', *, *, #237, .F. ) ;
#12 = ORIENTED_EDGE ( 'NONE', *, *, #67, .F. ) ;
#13 = APPROVAL_ROLE ( '' ) ;
#14 = ORIENTED_EDGE ( 'NONE', *, *, #39, .F. ) ;
#15 = ORIENTED_EDGE ( 'NONE', *, *, #213, .T. ) ;
#16 = MANIFOLD_SOLID_BREP ( 'Zaoblit1', #161 ) ;
#17 = CALENDAR_DATE ( 2022, 7, 7 ) ;
#18 = APPLICATION_PROTOCOL_DEFINITION ( 'international standard', 'config_control_design', 1994, #304 ) ;
#19 = DIRECTION ( 'NONE',  ( 0.000000000000000000, 0.000000000000000000, 1.000000000000000000 ) ) ;
#20 = CARTESIAN_POINT ( 'NONE',  ( 0.000000000000000000, 0.000000000000000000, 3.000000000000000000 ) ) ;
#21 = CIRCLE ( 'NONE', #27, 3.500000000000000444 ) ;
#22 = CYLINDRICAL_SURFACE ( 'NONE', #34, 1.750000000000000222 ) ;
#23 = DIRECTION ( 'NONE',  ( -1.000000000000000000, 0.000000000000000000, 0.000000000000000000 ) ) ;
#24 = AXIS2_PLACEMENT_3D ( 'NONE', #278, #186, #119 ) ;
#25 = CARTESIAN_POINT ( 'NONE',  ( -1.950000000000000400, 2.388061258337339136E-16, 2.999999999999997335 ) ) ;
#26 = APPROVAL ( #81, 'NEURÈENÝ' ) ;
#27 = AXIS2_PLACEMENT_3D ( 'NONE', #64, #141, #256 ) ;
#28 = CARTESIAN_POINT ( 'NONE',  ( 0.000000000000000000, 0.000000000000000000, 3.199999999999994404 ) ) ;
#29 = ADVANCED_FACE ( 'NONE', ( #77 ), #127, .F. ) ;
#30 = LINE ( 'NONE', #149, #245 ) ;
#31 = CARTESIAN_POINT ( 'NONE',  ( -1.750000000000000222, 0.000000000000000000, 128.0000000000000000 ) ) ;
#32 = PERSON_AND_ORGANIZATION_ROLE ( 'classification_officer' ) ;
#33 = PLANE ( 'NONE',  #105 ) ;
#34 = AXIS2_PLACEMENT_3D ( 'NONE', #206, #233, #94 ) ;
#35 = VERTEX_POINT ( 'NONE', #264 ) ;
#36 = ORIENTED_EDGE ( 'NONE', *, *, #92, .F. ) ;
#37 = AXIS2_PLACEMENT_3D ( 'NONE', #121, #259, #238 ) ;
#38 = ORIENTED_EDGE ( 'NONE', *, *, #197, .T. ) ;
#39 = EDGE_CURVE ( 'NONE', #107, #199, #156, .T. ) ;
#40 = EDGE_LOOP ( 'NONE', ( #36, #285, #214, #53 ) ) ;
#41 = CARTESIAN_POINT ( 'NONE',  ( 0.000000000000000000, 0.000000000000000000, 0.000000000000000000 ) ) ;
#42 = COORDINATED_UNIVERSAL_TIME_OFFSET ( 1, 0, .AHEAD. ) ;
#43 = PRODUCT_DEFINITION_SHAPE ( 'NONE', 'NONE',  #151 ) ;
#44 = APPROVAL_ROLE ( '' ) ;
#45 = DESIGN_CONTEXT ( 'detailed design', #260, 'design' ) ;
#46 = CARTESIAN_POINT ( 'NONE',  ( 3.500000000000000444, 4.286263797015737088E-16, 0.000000000000000000 ) ) ;
#47 = CARTESIAN_POINT ( 'NONE',  ( 0.000000000000000000, 0.000000000000000000, 3.000000000000000000 ) ) ;
#48 = FACE_OUTER_BOUND ( 'NONE', #193, .T. ) ;
#49 = CARTESIAN_POINT ( 'NONE',  ( 0.000000000000000000, 0.000000000000000000, 3.199999999999994404 ) ) ;
#50 = DIRECTION ( 'NONE',  ( 1.000000000000000000, 0.000000000000000000, -0.000000000000000000 ) ) ;
#51 = ADVANCED_FACE ( 'NONE', ( #247 ), #33, .T. ) ;
#52 = AXIS2_PLACEMENT_3D ( 'NONE', #241, #143, #306 ) ;
#53 = ORIENTED_EDGE ( 'NONE', *, *, #173, .T. ) ;
#54 = DIRECTION ( 'NONE',  ( 0.000000000000000000, 0.000000000000000000, 1.000000000000000000 ) ) ;
#55 = CYLINDRICAL_SURFACE ( 'NONE', #118, 1.750000000000000222 ) ;
#56 =( GEOMETRIC_REPRESENTATION_CONTEXT ( 3 ) GLOBAL_UNCERTAINTY_ASSIGNED_CONTEXT ( ( #159 ) ) GLOBAL_UNIT_ASSIGNED_CONTEXT ( ( #87, #155, #273 ) ) REPRESENTATION_CONTEXT ( 'NONE', 'WORKASPACE' ) );
#57 = ORIENTED_EDGE ( 'NONE', *, *, #67, .T. ) ;
#58 = CC_DESIGN_PERSON_AND_ORGANIZATION_ASSIGNMENT ( #250, #32, ( #140 ) ) ;
#59 = ORIENTED_EDGE ( 'NONE', *, *, #79, .T. ) ;
#60 = ORIENTED_EDGE ( 'NONE', *, *, #104, .T. ) ;
#61 = TOROIDAL_SURFACE ( 'NONE', #24, 1.950000000000000400, 0.2000000000000000111 ) ;
#62 = DIRECTION ( 'NONE',  ( -0.000000000000000000, -0.000000000000000000, -1.000000000000000000 ) ) ;
#63 = APPROVAL_ROLE ( '' ) ;
#64 = CARTESIAN_POINT ( 'NONE',  ( 0.000000000000000000, 0.000000000000000000, 3.000000000000000000 ) ) ;
#65 = PRODUCT_RELATED_PRODUCT_CATEGORY ( 'detail', '', ( #255 ) ) ;
#66 = CARTESIAN_POINT ( 'NONE',  ( 0.000000000000000000, 0.000000000000000000, 128.0000000000000000 ) ) ;
#67 = EDGE_CURVE ( 'NONE', #129, #107, #288, .T. ) ;
#68 = FACE_OUTER_BOUND ( 'NONE', #152, .T. ) ;
#69 = CC_DESIGN_APPROVAL ( #145, ( #89 ) ) ;
#70 = DIRECTION ( 'NONE',  ( 1.000000000000000000, 0.000000000000000000, 0.000000000000000000 ) ) ;
#71 = ORIENTED_EDGE ( 'NONE', *, *, #10, .F. ) ;
#72 = VECTOR ( 'NONE', #5, 1000.000000000000000 ) ;
#73 = ADVANCED_FACE ( 'NONE', ( #171 ), #302, .F. ) ;
#74 = DIRECTION ( 'NONE',  ( -0.000000000000000000, -0.000000000000000000, -1.000000000000000000 ) ) ;
#75 = DIRECTION ( 'NONE',  ( 1.000000000000000000, 0.000000000000000000, 0.000000000000000000 ) ) ;
#76 = COORDINATED_UNIVERSAL_TIME_OFFSET ( 1, 0, .AHEAD. ) ;
#77 = FACE_OUTER_BOUND ( 'NONE', #195, .T. ) ;
#78 = ORIENTED_EDGE ( 'NONE', *, *, #173, .F. ) ;
#79 = EDGE_CURVE ( 'NONE', #199, #35, #93, .T. ) ;
#80 = EDGE_LOOP ( 'NONE', ( #102, #154 ) ) ;
#81 = APPROVAL_STATUS ( 'not_yet_approved' ) ;
#82 = ORIENTED_EDGE ( 'NONE', *, *, #237, .T. ) ;
#83 = PERSON_AND_ORGANIZATION_ROLE ( 'creator' ) ;
#84 = APPROVAL_PERSON_ORGANIZATION ( #274, #169, #63 ) ;
#85 = MECHANICAL_CONTEXT ( 'NONE', #304, 'mechanical' ) ;
#86 = PERSON_AND_ORGANIZATION ( #174, #253 ) ;
#87 =( LENGTH_UNIT ( ) NAMED_UNIT ( * ) SI_UNIT ( .MILLI., .METRE. ) );
#88 = DIRECTION ( 'NONE',  ( 0.000000000000000000, 0.000000000000000000, 1.000000000000000000 ) ) ;
#89 = PRODUCT_DEFINITION_FORMATION_WITH_SPECIFIED_SOURCE ( 'LIBOVOLNÝ', '', #255, .NOT_KNOWN. ) ;
#90 = COORDINATED_UNIVERSAL_TIME_OFFSET ( 1, 0, .AHEAD. ) ;
#91 = CARTESIAN_POINT ( 'NONE',  ( 3.500000000000000444, 4.286263797015737088E-16, 3.000000000000000000 ) ) ;
#92 = EDGE_CURVE ( 'NONE', #227, #177, #265, .T. ) ;
#93 = CIRCLE ( 'NONE', #286, 0.2000000000000000944 ) ;
#94 = DIRECTION ( 'NONE',  ( -1.000000000000000000, 0.000000000000000000, 0.000000000000000000 ) ) ;
#95 = CARTESIAN_POINT ( 'NONE',  ( -1.950000000000000400, 2.388061258337339136E-16, 3.199999999999994404 ) ) ;
#96 = CIRCLE ( 'NONE', #52, 1.750000000000000222 ) ;
#97 = VERTEX_POINT ( 'NONE', #98 ) ;
#98 = CARTESIAN_POINT ( 'NONE',  ( -3.500000000000000444, 0.000000000000000000, 3.000000000000000000 ) ) ;
#99 = DIRECTION ( 'NONE',  ( 0.000000000000000000, 0.000000000000000000, 1.000000000000000000 ) ) ;
#100 = PERSON_AND_ORGANIZATION ( #174, #253 ) ;
#101 = ORIENTED_EDGE ( 'NONE', *, *, #249, .F. ) ;
#102 = ORIENTED_EDGE ( 'NONE', *, *, #230, .T. ) ;
#103 = CIRCLE ( 'NONE', #258, 3.500000000000000444 ) ;
#104 = EDGE_CURVE ( 'NONE', #177, #153, #188, .T. ) ;
#105 = AXIS2_PLACEMENT_3D ( 'NONE', #244, #268, #50 ) ;
#106 = AXIS2_PLACEMENT_3D ( 'NONE', #28, #124, #123 ) ;
#107 = VERTEX_POINT ( 'NONE', #148 ) ;
#108 = EDGE_LOOP ( 'NONE', ( #15, #38 ) ) ;
#109 = DATE_AND_TIME ( #17, #201 ) ;
#110 = CC_DESIGN_APPROVAL ( #26, ( #140 ) ) ;
#111 = CYLINDRICAL_SURFACE ( 'NONE', #168, 3.500000000000000444 ) ;
#112 = CALENDAR_DATE ( 2022, 7, 7 ) ;
#113 = FACE_OUTER_BOUND ( 'NONE', #40, .T. ) ;
#114 = DIRECTION ( 'NONE',  ( -1.000000000000000000, 0.000000000000000000, 0.000000000000000000 ) ) ;
#115 = FACE_BOUND ( 'NONE', #108, .T. ) ;
#116 = FACE_OUTER_BOUND ( 'NONE', #80, .T. ) ;
#117 = VECTOR ( 'NONE', #170, 1000.000000000000000 ) ;
#118 = AXIS2_PLACEMENT_3D ( 'NONE', #290, #184, #23 ) ;
#119 = DIRECTION ( 'NONE',  ( 1.000000000000000000, 0.000000000000000000, 0.000000000000000000 ) ) ;
#120 = EDGE_CURVE ( 'NONE', #97, #153, #246, .T. ) ;
#121 = CARTESIAN_POINT ( 'NONE',  ( 0.000000000000000000, 0.000000000000000000, 3.000000000000000000 ) ) ;
#122 = APPROVAL_PERSON_ORGANIZATION ( #100, #26, #13 ) ;
#123 = DIRECTION ( 'NONE',  ( 1.000000000000000000, 0.000000000000000000, 0.000000000000000000 ) ) ;
#124 = DIRECTION ( 'NONE',  ( 0.000000000000000000, 0.000000000000000000, 1.000000000000000000 ) ) ;
#125 = FACE_OUTER_BOUND ( 'NONE', #131, .T. ) ;
#126 = LOCAL_TIME ( 14, 52, 43.00000000000000000, #198 ) ;
#127 = PLANE ( 'NONE',  #280 ) ;
#128 = APPROVAL_DATE_TIME ( #296, #26 ) ;
#129 = VERTEX_POINT ( 'NONE', #31 ) ;
#130 = CIRCLE ( 'NONE', #208, 1.950000000000000400 ) ;
#131 = EDGE_LOOP ( 'NONE', ( #71, #228, #57, #292 ) ) ;
#132 = VECTOR ( 'NONE', #192, 1000.000000000000000 ) ;
#133 = CALENDAR_DATE ( 2022, 7, 7 ) ;
#134 = FACE_OUTER_BOUND ( 'NONE', #300, .T. ) ;
#135 = PERSON_AND_ORGANIZATION ( #174, #253 ) ;
#136 = CARTESIAN_POINT ( 'NONE',  ( 0.000000000000000000, 0.000000000000000000, 3.000000000000000000 ) ) ;
#137 = ADVANCED_FACE ( 'NONE', ( #125 ), #55, .T. ) ;
#138 = DIRECTION ( 'NONE',  ( 1.000000000000000000, 0.000000000000000000, 0.000000000000000000 ) ) ;
#139 = DIRECTION ( 'NONE',  ( 1.000000000000000000, 0.000000000000000000, 0.000000000000000000 ) ) ;
#140 = SECURITY_CLASSIFICATION ( '', '', #222 ) ;
#141 = DIRECTION ( 'NONE',  ( 0.000000000000000000, 0.000000000000000000, 1.000000000000000000 ) ) ;
#142 = CIRCLE ( 'NONE', #9, 1.750000000000000222 ) ;
#143 = DIRECTION ( 'NONE',  ( 0.000000000000000000, 0.000000000000000000, 1.000000000000000000 ) ) ;
#144 = EDGE_LOOP ( 'NONE', ( #223, #176 ) ) ;
#145 = APPROVAL ( #305, 'NEURÈENÝ' ) ;
#146 = ORIENTED_EDGE ( 'NONE', *, *, #213, .F. ) ;
#147 = CC_DESIGN_PERSON_AND_ORGANIZATION_ASSIGNMENT ( #135, #232, ( #151 ) ) ;
#148 = CARTESIAN_POINT ( 'NONE',  ( -1.750000000000000222, 0.000000000000000000, 3.199999999999994404 ) ) ;
#149 = CARTESIAN_POINT ( 'NONE',  ( 1.750000000000000222, 2.143131898507868544E-16, 128.0000000000000000 ) ) ;
#150 = AXIS2_PLACEMENT_3D ( 'NONE', #49, #210, #139 ) ;
#151 = PRODUCT_DEFINITION ( 'NEZNÁMÝ', '', #89, #45 ) ;
#152 = EDGE_LOOP ( 'NONE', ( #217, #11, #59, #4 ) ) ;
#153 = VERTEX_POINT ( 'NONE', #182 ) ;
#154 = ORIENTED_EDGE ( 'NONE', *, *, #279, .T. ) ;
#155 =( NAMED_UNIT ( * ) PLANE_ANGLE_UNIT ( ) SI_UNIT ( $, .RADIAN. ) );
#156 = CIRCLE ( 'NONE', #196, 1.750000000000000222 ) ;
#157 = ADVANCED_FACE ( 'NONE', ( #68 ), #61, .F. ) ;
#158 = APPROVAL_DATE_TIME ( #207, #169 ) ;
#159 = UNCERTAINTY_MEASURE_WITH_UNIT (LENGTH_MEASURE( 1.000000000000000082E-05 ), #87, 'distance_accuracy_value', 'NONE');
#160 = DIRECTION ( 'NONE',  ( 1.000000000000000000, 0.000000000000000000, 0.000000000000000000 ) ) ;
#161 = CLOSED_SHELL ( 'NONE', ( #73, #270, #289, #269, #203, #29, #137, #51, #157 ) ) ;
#162 = CARTESIAN_POINT ( 'NONE',  ( 0.000000000000000000, 0.000000000000000000, 3.000000000000000000 ) ) ;
#163 = CYLINDRICAL_SURFACE ( 'NONE', #37, 3.500000000000000444 ) ;
#164 = CIRCLE ( 'NONE', #150, 1.750000000000000222 ) ;
#165 = CARTESIAN_POINT ( 'NONE',  ( 0.000000000000000000, 0.000000000000000000, 3.000000000000000000 ) ) ;
#166 = DIRECTION ( 'NONE',  ( 0.000000000000000000, 0.000000000000000000, -1.000000000000000000 ) ) ;
#167 = DIRECTION ( 'NONE',  ( 0.000000000000000000, 0.000000000000000000, 1.000000000000000000 ) ) ;
#168 = AXIS2_PLACEMENT_3D ( 'NONE', #20, #62, #114 ) ;
#169 = APPROVAL ( #277, 'NEURÈENÝ' ) ;
#170 = DIRECTION ( 'NONE',  ( -0.000000000000000000, -0.000000000000000000, -1.000000000000000000 ) ) ;
#171 = FACE_OUTER_BOUND ( 'NONE', #295, .T. ) ;
#172 = CARTESIAN_POINT ( 'NONE',  ( 0.000000000000000000, 0.000000000000000000, 0.000000000000000000 ) ) ;
#173 = EDGE_CURVE ( 'NONE', #153, #177, #211, .T. ) ;
#174 = PERSON ( 'NEURÈENÝ', 'NEURÈENÝ', 'NEURÈENÝ', ('NEURÈENÝ'), ('NEURÈENÝ'), ('NEURÈENÝ') ) ;
#175 = ORIENTED_EDGE ( 'NONE', *, *, #181, .T. ) ;
#176 = ORIENTED_EDGE ( 'NONE', *, *, #249, .T. ) ;
#177 = VERTEX_POINT ( 'NONE', #46 ) ;
#178 = PERSON_AND_ORGANIZATION_ROLE ( 'design_supplier' ) ;
#179 = CIRCLE ( 'NONE', #221, 1.950000000000000400 ) ;
#180 = APPLICATION_PROTOCOL_DEFINITION ( 'international standard', 'config_control_design', 1994, #260 ) ;
#181 = EDGE_CURVE ( 'NONE', #107, #263, #194, .T. ) ;
#182 = CARTESIAN_POINT ( 'NONE',  ( -3.500000000000000444, 0.000000000000000000, 0.000000000000000000 ) ) ;
#183 = PERSON_AND_ORGANIZATION ( #174, #253 ) ;
#184 = DIRECTION ( 'NONE',  ( -0.000000000000000000, -0.000000000000000000, -1.000000000000000000 ) ) ;
#185 = DIRECTION ( 'NONE',  ( -1.000000000000000000, 1.224646799147353207E-16, 0.000000000000000000 ) ) ;
#186 = DIRECTION ( 'NONE',  ( 0.000000000000000000, 0.000000000000000000, 1.000000000000000000 ) ) ;
#187 = CC_DESIGN_DATE_AND_TIME_ASSIGNMENT ( #298, #7, ( #140 ) ) ;
#188 = CIRCLE ( 'NONE', #266, 3.500000000000000444 ) ;
#189 = CARTESIAN_POINT ( 'NONE',  ( -1.750000000000000222, 0.000000000000000000, 128.0000000000000000 ) ) ;
#190 = EDGE_CURVE ( 'NONE', #129, #200, #142, .T. ) ;
#191 = CARTESIAN_POINT ( 'NONE',  ( 0.000000000000000000, 0.000000000000000000, 0.000000000000000000 ) ) ;
#192 = DIRECTION ( 'NONE',  ( -0.000000000000000000, -0.000000000000000000, -1.000000000000000000 ) ) ;
#193 = EDGE_LOOP ( 'NONE', ( #101, #224, #82, #12 ) ) ;
#194 = CIRCLE ( 'NONE', #240, 0.2000000000000000944 ) ;
#195 = EDGE_LOOP ( 'NONE', ( #78, #252 ) ) ;
#196 = AXIS2_PLACEMENT_3D ( 'NONE', #242, #167, #8 ) ;
#197 = EDGE_CURVE ( 'NONE', #263, #35, #179, .T. ) ;
#198 = COORDINATED_UNIVERSAL_TIME_OFFSET ( 1, 0, .AHEAD. ) ;
#199 = VERTEX_POINT ( 'NONE', #239 ) ;
#200 = VERTEX_POINT ( 'NONE', #283 ) ;
#201 = LOCAL_TIME ( 14, 52, 43.00000000000000000, #90 ) ;
#202 = PERSON_AND_ORGANIZATION ( #174, #253 ) ;
#203 = ADVANCED_FACE ( 'NONE', ( #115, #116 ), #209, .T. ) ;
#204 = DIRECTION ( 'NONE',  ( 0.000000000000000000, 0.000000000000000000, 1.000000000000000000 ) ) ;
#205 = DATE_TIME_ROLE ( 'creation_date' ) ;
#206 = CARTESIAN_POINT ( 'NONE',  ( 0.000000000000000000, 0.000000000000000000, 128.0000000000000000 ) ) ;
#207 = DATE_AND_TIME ( #133, #276 ) ;
#208 = AXIS2_PLACEMENT_3D ( 'NONE', #165, #3, #1 ) ;
#209 = PLANE ( 'NONE',  #262 ) ;
#210 = DIRECTION ( 'NONE',  ( 0.000000000000000000, 0.000000000000000000, 1.000000000000000000 ) ) ;
#211 = CIRCLE ( 'NONE', #291, 3.500000000000000444 ) ;
#212 = DIRECTION ( 'NONE',  ( 0.000000000000000000, 0.000000000000000000, 1.000000000000000000 ) ) ;
#213 = EDGE_CURVE ( 'NONE', #35, #263, #130, .T. ) ;
#214 = ORIENTED_EDGE ( 'NONE', *, *, #120, .T. ) ;
#215 = CC_DESIGN_DATE_AND_TIME_ASSIGNMENT ( #307, #205, ( #151 ) ) ;
#216 = DIRECTION ( 'NONE',  ( 0.000000000000000000, -1.000000000000000000, 0.000000000000000000 ) ) ;
#217 = ORIENTED_EDGE ( 'NONE', *, *, #181, .F. ) ;
#218 = APPROVAL_PERSON_ORGANIZATION ( #281, #145, #44 ) ;
#219 = DIRECTION ( 'NONE',  ( 1.000000000000000000, 0.000000000000000000, -0.000000000000000000 ) ) ;
#220 = CALENDAR_DATE ( 2022, 7, 7 ) ;
#221 = AXIS2_PLACEMENT_3D ( 'NONE', #47, #235, #138 ) ;
#222 = SECURITY_CLASSIFICATION_LEVEL ( 'unclassified' ) ;
#223 = ORIENTED_EDGE ( 'NONE', *, *, #190, .T. ) ;
#224 = ORIENTED_EDGE ( 'NONE', *, *, #10, .T. ) ;
#225 = CC_DESIGN_PERSON_AND_ORGANIZATION_ASSIGNMENT ( #86, #301, ( #255 ) ) ;
#226 = CALENDAR_DATE ( 2022, 7, 7 ) ;
#227 = VERTEX_POINT ( 'NONE', #91 ) ;
#228 = ORIENTED_EDGE ( 'NONE', *, *, #190, .F. ) ;
#229 = COORDINATED_UNIVERSAL_TIME_OFFSET ( 1, 0, .AHEAD. ) ;
#230 = EDGE_CURVE ( 'NONE', #97, #227, #103, .T. ) ;
#231 = CC_DESIGN_APPROVAL ( #169, ( #151 ) ) ;
#232 = PERSON_AND_ORGANIZATION_ROLE ( 'creator' ) ;
#233 = DIRECTION ( 'NONE',  ( -0.000000000000000000, -0.000000000000000000, -1.000000000000000000 ) ) ;
#234 = ADVANCED_BREP_SHAPE_REPRESENTATION ( '5f3f', ( #16, #243 ), #56 ) ;
#235 = DIRECTION ( 'NONE',  ( -0.000000000000000000, -0.000000000000000000, -1.000000000000000000 ) ) ;
#236 = LOCAL_TIME ( 14, 52, 43.00000000000000000, #229 ) ;
#237 = EDGE_CURVE ( 'NONE', #199, #107, #164, .T. ) ;
#238 = DIRECTION ( 'NONE',  ( -1.000000000000000000, 0.000000000000000000, 0.000000000000000000 ) ) ;
#239 = CARTESIAN_POINT ( 'NONE',  ( 1.750000000000000222, 2.143131898507868544E-16, 3.199999999999994404 ) ) ;
#240 = AXIS2_PLACEMENT_3D ( 'NONE', #95, #2, #185 ) ;
#241 = CARTESIAN_POINT ( 'NONE',  ( 0.000000000000000000, 0.000000000000000000, 128.0000000000000000 ) ) ;
#242 = CARTESIAN_POINT ( 'NONE',  ( 0.000000000000000000, 0.000000000000000000, 3.199999999999994404 ) ) ;
#243 = AXIS2_PLACEMENT_3D ( 'NONE', #41, #204, #303 ) ;
#244 = CARTESIAN_POINT ( 'NONE',  ( 0.000000000000000000, 0.000000000000000000, 128.0000000000000000 ) ) ;
#245 = VECTOR ( 'NONE', #74, 1000.000000000000000 ) ;
#246 = LINE ( 'NONE', #267, #132 ) ;
#247 = FACE_OUTER_BOUND ( 'NONE', #144, .T. ) ;
#248 = LOCAL_TIME ( 14, 52, 43.00000000000000000, #76 ) ;
#249 = EDGE_CURVE ( 'NONE', #200, #129, #96, .T. ) ;
#250 = PERSON_AND_ORGANIZATION ( #174, #253 ) ;
#251 = ORIENTED_EDGE ( 'NONE', *, *, #92, .T. ) ;
#252 = ORIENTED_EDGE ( 'NONE', *, *, #104, .F. ) ;
#253 = ORGANIZATION ( 'NEURÈENÝ', 'NEURÈENÝ', '' ) ;
#254 = CC_DESIGN_PERSON_AND_ORGANIZATION_ASSIGNMENT ( #202, #178, ( #89 ) ) ;
#255 = PRODUCT ( '5f3f', '5f3f', '', ( #85 ) ) ;
#256 = DIRECTION ( 'NONE',  ( 1.000000000000000000, 0.000000000000000000, 0.000000000000000000 ) ) ;
#257 = DIRECTION ( 'NONE',  ( 1.000000000000000000, 0.000000000000000000, 0.000000000000000000 ) ) ;
#258 = AXIS2_PLACEMENT_3D ( 'NONE', #162, #261, #257 ) ;
#259 = DIRECTION ( 'NONE',  ( -0.000000000000000000, -0.000000000000000000, -1.000000000000000000 ) ) ;
#260 = APPLICATION_CONTEXT ( 'configuration controlled 3d designs of mechanical parts and assemblies' ) ;
#261 = DIRECTION ( 'NONE',  ( 0.000000000000000000, 0.000000000000000000, 1.000000000000000000 ) ) ;
#262 = AXIS2_PLACEMENT_3D ( 'NONE', #136, #88, #284 ) ;
#263 = VERTEX_POINT ( 'NONE', #25 ) ;
#264 = CARTESIAN_POINT ( 'NONE',  ( 1.950000000000000400, 0.000000000000000000, 2.999999999999997335 ) ) ;
#265 = LINE ( 'NONE', #287, #72 ) ;
#266 = AXIS2_PLACEMENT_3D ( 'NONE', #191, #54, #75 ) ;
#267 = CARTESIAN_POINT ( 'NONE',  ( -3.500000000000000444, 0.000000000000000000, 3.000000000000000000 ) ) ;
#268 = DIRECTION ( 'NONE',  ( 0.000000000000000000, 0.000000000000000000, 1.000000000000000000 ) ) ;
#269 = ADVANCED_FACE ( 'NONE', ( #113 ), #163, .T. ) ;
#270 = ADVANCED_FACE ( 'NONE', ( #48 ), #22, .T. ) ;
#271 = ORIENTED_EDGE ( 'NONE', *, *, #79, .F. ) ;
#272 = ORIENTED_EDGE ( 'NONE', *, *, #279, .F. ) ;
#273 =( NAMED_UNIT ( * ) SI_UNIT ( $, .STERADIAN. ) SOLID_ANGLE_UNIT ( ) );
#274 = PERSON_AND_ORGANIZATION ( #174, #253 ) ;
#275 = CC_DESIGN_PERSON_AND_ORGANIZATION_ASSIGNMENT ( #183, #83, ( #89 ) ) ;
#276 = LOCAL_TIME ( 14, 52, 43.00000000000000000, #42 ) ;
#277 = APPROVAL_STATUS ( 'not_yet_approved' ) ;
#278 = CARTESIAN_POINT ( 'NONE',  ( 0.000000000000000000, 0.000000000000000000, 3.199999999999994404 ) ) ;
#279 = EDGE_CURVE ( 'NONE', #227, #97, #21, .T. ) ;
#280 = AXIS2_PLACEMENT_3D ( 'NONE', #172, #99, #219 ) ;
#281 = PERSON_AND_ORGANIZATION ( #174, #253 ) ;
#282 = CARTESIAN_POINT ( 'NONE',  ( 0.000000000000000000, 0.000000000000000000, 0.000000000000000000 ) ) ;
#283 = CARTESIAN_POINT ( 'NONE',  ( 1.750000000000000222, 2.143131898507868544E-16, 128.0000000000000000 ) ) ;
#284 = DIRECTION ( 'NONE',  ( 1.000000000000000000, 0.000000000000000000, -0.000000000000000000 ) ) ;
#285 = ORIENTED_EDGE ( 'NONE', *, *, #230, .F. ) ;
#286 = AXIS2_PLACEMENT_3D ( 'NONE', #6, #216, #166 ) ;
#287 = CARTESIAN_POINT ( 'NONE',  ( 3.500000000000000444, 4.286263797015737088E-16, 3.000000000000000000 ) ) ;
#288 = LINE ( 'NONE', #189, #117 ) ;
#289 = ADVANCED_FACE ( 'NONE', ( #134 ), #111, .T. ) ;
#290 = CARTESIAN_POINT ( 'NONE',  ( 0.000000000000000000, 0.000000000000000000, 128.0000000000000000 ) ) ;
#291 = AXIS2_PLACEMENT_3D ( 'NONE', #282, #19, #160 ) ;
#292 = ORIENTED_EDGE ( 'NONE', *, *, #39, .T. ) ;
#293 = SHAPE_DEFINITION_REPRESENTATION ( #43, #234 ) ;
#294 = CC_DESIGN_SECURITY_CLASSIFICATION ( #140, ( #89 ) ) ;
#295 = EDGE_LOOP ( 'NONE', ( #14, #175, #146, #271 ) ) ;
#296 = DATE_AND_TIME ( #220, #248 ) ;
#297 = ORIENTED_EDGE ( 'NONE', *, *, #120, .F. ) ;
#298 = DATE_AND_TIME ( #226, #126 ) ;
#299 = APPROVAL_DATE_TIME ( #109, #145 ) ;
#300 = EDGE_LOOP ( 'NONE', ( #272, #251, #60, #297 ) ) ;
#301 = PERSON_AND_ORGANIZATION_ROLE ( 'design_owner' ) ;
#302 = TOROIDAL_SURFACE ( 'NONE', #106, 1.950000000000000400, 0.2000000000000000111 ) ;
#303 = DIRECTION ( 'NONE',  ( 1.000000000000000000, 0.000000000000000000, 0.000000000000000000 ) ) ;
#304 = APPLICATION_CONTEXT ( 'configuration controlled 3d designs of mechanical parts and assemblies' ) ;
#305 = APPROVAL_STATUS ( 'not_yet_approved' ) ;
#306 = DIRECTION ( 'NONE',  ( 1.000000000000000000, 0.000000000000000000, 0.000000000000000000 ) ) ;
#307 = DATE_AND_TIME ( #112, #236 ) ;
ENDSEC;
END-ISO-10303-21;
